» » »

Teenage Dirtbag Bass tabs (ver.3)

Artists:  A B C D E F G H I J K L M N O P Q R S T U V W X Y Z # 

Teenage Dirtbag Bass tabs (ver.3)

Wheatus
Rating:
4/5 (3 votes)

Hard to play? Try these video lessons and learn fast.
                Hi, i think it's good - Have fun and good luck :)


Intro:
             H        Q    E  E     E  E  E  S S E  E  E  S S  
G||-------|----------------------|----------------------------|
D||-------|----------------------|----------------------------|
A||-------|----------------------|---------------2--2-------2-|
E||-------|-------------------7--|--0--0-------0--------------|


Verse:

  E  E  E  S S E  E  E  S S    E  E  E  S S E  E  E  S S  
----------------------------|----------------------------|
----------------------------|----------------------------|
---------------0--0-----0-2-|---------------2--2-------4-|
--0--0-------0-------4------|--0--0-------0--------------|


  E  E  E  S S E  E  E  S S    E  E  E  S S E  E  E  S S  
----------------------------|----------------------------|
--2--2-------2--------------|----------------------------|
---------------0--0-----0-2-|---------------2--2-------2-|
---------------------4------|--0--0-------0--------------|


  E  E  E  S S E  E  E  S S    E  E  E  S S E  E  E  S S  
----------------------------|----------------------------|
----------------------------|----------------------------|
---------------0--0-----0-2-|---------------2--2-------2-|
--0--0-------0-------4------|--0--0-------0--------------|


  E  E  E  S S E  E  E  S S    E  E  E  S S E  E  E  S S  
----------------------------|----------------------------|
----------------------------|----------------------------|
---------------0--0-----0-2-|---------------2--2-------4-|
--0--0-------0-------4------|--0--0-------0--------------|


  E  E  E  S S E  E  E  S S    E  E  E  S S E  E  E  S S  
----------------------------|----------------------------|
--2--2-------2--------------|----------------------------|
---------------0--0--0----2-|---------------0--0-------0-|
------------------------4---|--4--4-------4--------------|


  E  E  E  S S E  E  E  S S    E  E  E  S S E  E  E  S S  
----------------------------|----------------------------|
----------------------------|----------------------------|
--2--2-------2-2--2-------2-|--4--4-------4-0--0-------0-|
----------------------------|----------------------------|


  E  E  E  S S E  E  E  S S    E  E  E  S S E  E  E  S S  
----------------------------|----------------------------|
----------------------------|----------------------------|
--2--2-------2-2--2-------2-|---------------0--0-------0-|
----------------------------|--0--0-------0--------------|


  E  E  E  S S E  E  E  E     E  E  E  S S E  E  E  S S  
---------------------------|----------------------------|
------------------6-----4--|----------------------------|
--2--2-------2-4-----2-----|---------------0--0-------0-|
---------------------------|--0--0-------0--------------|





  E  E  E  S S E  E  E  E     E  E  E  S S E  E  E  S S  
---------------------------|----------------------------|
------------------6-----4--|----------------------------|
--2--2-------2-4-----2-----|---------------0--0-------0-|
---------------------------|--0--0-------0--------------

  E  E  E  S S E  E  E  E     E  E  E  S S E  E  E  S S  
---------------------------|----------------------------|
------------------6-----4--|----------------------------|
--2--2-------2-4-----2-----|---------------0--0-------0-|
---------------------------|--0--0-------0--------------|


  E  E  E  S S E  E  E  E     E  E  E  E     E  E  E  S S E  E  E  S S  
---------------------------|--------------|----------------------------|
------------------6-----4--|-----2-----4--|----------------------------|
--2--2-------2-4-----2-----|--0-----2-----|---------------2--2-------2-|
---------------------------|--------------|--0--0-------0--------------|


  E  E  E  S S E  E  E  S S    E  E  E  S S E  E  E  S S  
----------------------------|----------------------------|
----------------------------|----------------------------|
---------------0--0-----0-2-|---------------2--2-------4-|
--0--0-------0-------4------|--0--0-------0--------------|


  E  E  E  S S E  E  E  S S    E  E  E  S S E  E  E  S S  
----------------------------|----------------------------|
--2--2-------2--------------|----------------------------|
---------------0--0-----0-2-|---------------2--2-------2-|
---------------------4------|--0--0-------0--------------|


  E  E  E  S S E  E  E  S S    E  E  E  S S E  E  E  S S  
----------------------------|----------------------------|
----------------------------|----------------------------|
---------------0--0-----0-2-|---------------2--2-------2-|
--0--0-------0-------4------|--0--0-------0--------------|


  E  E  E  S S E  E  E  S S    E  E  E  S S E  E  E  S S  
----------------------------|----------------------------|
----------------------------|----------------------------|
---------------0--0-----0-2-|---------------2--2-------4-|
--0--0-------0-------4------|--0--0-------0--------------|


  E  E  E  S S E  E  E  S S    E  E  E  S S E  E  E  S S  
----------------------------|----------------------------|
--2--2-------2--------------|----------------------------|
---------------0--0--0----2-|---------------0--0-------0-|
------------------------4---|--4--4-------4--------------|


  E  E  E  S S E  E  E  S S    E  E  E  S S E  E  E  S S  
----------------------------|----------------------------|
----------------------------|----------------------------|
--2--2-------2-2--2-------2-|--4--4-------4-0--0-------0-|
----------------------------|----------------------------|


  E  E  E  S S E  E  E  S S    E  E  E  S S E  E  E  S S  
----------------------------|----------------------------|
----------------------------|----------------------------|
--2--2-------2-2--2-------2-|---------------0--0-------0-|
----------------------------|--0--0-------0--------------|


E  E  E  S S E  E  E  E     E  E  E  S S E  E  E  S S  
---------------------------|----------------------------|
------------------6-----4--|----------------------------|
--2--2-------2-4-----2-----|---------------0--0-------0-|
---------------------------|--0--0-------0--------------|

  E  E  E  S S E  E  E  E     E  E  E  S S E  E  E  S S  
---------------------------|----------------------------|
------------------6-----4--|----------------------------|
--2--2-------2-4-----2-----|---------------0--0-------0-|
---------------------------|--0--0-------0--------------|


  E  E  E  S S E  E  E  E     E  E  E  S S E  E  E  S S  
---------------------------|----------------------------|
------------------6-----4--|----------------------------|
--2--2-------2-4-----2-----|---------------0--0-------0-|
---------------------------|--0--0-------0--------------|


  E  E  E  E  H           H           E  E  E  E  H         
-----------------------|-----------|-----------------------|
-----------------------|-----------|-----------------------|
--2--2-----------------|-----------|--------2--0--L--------|
-----------------------|-----------|--0--0-----------------|


  E  E  E  E  H           E  E  E  E  H           E  E  E  E  E  E  E  E   
-----------------------|-----------------------|--------------------------|
-----------------------|-----------------------|-----6-----4-----2-----4--|
--------2--0--L--------|--------2--0--L--------|--4-----2-----0-----2-----|
--0--0-----------------|--0--0-----------------|--------------------------|


  E  E  E  E  H           E  E  E  E  H           E  E  E  E  H         
-----------------------|-----------------------|-----------------------|
-----------------------|-----------------------|-----------------------|
--------2--0--L--------|--------2--0--L--------|--------2--0--L--------|
--0--0-----------------|--0--0-----------------|--0--0-----------------|


  E  E  E  E  E  E  E  E                                                   
--------------------------|-----|-----|-----|-----|-----------|-----------|
-----6-----4-----2-----4--|-----|-----|-----|-----|-----------|-----------|
--4-----2-----0-----2-----|-----|-----|-----|-----|-----------|-----------|
--------------------------|-----|-----|-----|-----|-----------|-----------|


-----------|-----------|-----------|-----------|-----------|-----------|
-----------|-----------|-----------|-----------|-----------|-----------|
-----------|-----------|-----------|-----------|-----------|-----------|
-----------|-----------|-----------|-----------|-----------|-----------|


-----------|-----------|-----------|-----------|-----------|-----------|
-----------|-----------|-----------|-----------|-----------|-----------|
-----------|-----------|-----------|-----------|-----------|-----------|
-----------|-----------|-----------|-----------|-----------|-----------|


                                      E  E  E  S S E  E  E  E     E  E  E  E   
-----------|-----------|-----------|---------------------------|--------------|
-----------|-----------|-----------|------------------6-----4--|-----2-----4--|
-----------|-----------|-----------|--2--2-------2-4-----2-----|--0-----2-----|
-----------|-----------|-----------|---------------------------|--------------|


  E  E  E  E  H           E  E  E  E  H           E  E  E  E  H         
-----------------------|-----------------------|-----------------------|
-----------------------|-----------------------|-----------------------|
--------2--0--L--------|--------2--0--L--------|--------2--0--L--------|
--0--0-----------------|--0--0-----------------|--0--0-----------------|


  E  E  E  E  E  E  E  E     E  E  E  E  H           E  E  E  E  H         
--------------------------|-----------------------|-----------------------|
-----6-----4-----2-----4--|-----------------------|-----------------------|
--4-----2-----0-----2-----|--------2--0--L--------|--------2--0--L--------|
--------------------------|--0--0-----------------|--0--0-----------------|


  E  E  E  E  H           E  E  E  E  E  E  E  E     E  E  E  S S E  E  E  S S  
-----------------------|--------------------------|----------------------------|
-----------------------|-----6-----4-----2-----4--|----------------------------|
--------2--0--L--------|--4-----2-----0-----2-----|---------------2--2-------2-|
--0--0-----------------|--------------------------|--0--0-------0--------------|


  E  E  E  S S E  E  E  E     E  E  E  S S E  E  E  S S  
---------------------------|----------------------------|
---------------------------|----------------------------|
---------------0--0--------|---------------2--2-------2-|
--0--0-------0-------4--4--|--0--0-------0--------------|


  E  E  E  E  E  E  S  S  S S    W                   W                 
------------------------------|-------------------|-------------------|
------------------------------|-------------------|-------------------|
------------------------------|-------------------|-------------------|
--0--0--x-----5--4--2h-4p-2-x-|--0----------------|--L----------------|


  W                   W                   H        H          
-------------------|-------------------|--------------------||
-------------------|-------------------|--------------------||
-------------------|-------------------|--------------------||
--L----------------|--L----------------|--L--------L--------||
            
Hard to play? Try these video lessons and learn fast. | Correct




comments powered by Disqus
↑ Back to top | Tablatures and chords are parodies/interpretations of the original songs. You may use it for private study, scholarship, research or language learning purposes only