» » »

Wheatus, Teenage Dirtbag Tabs (ver.7)

Artists:  A B C D E F G H I J K L M N O P Q R S T U V W X Y Z # 

Teenage Dirtbag Tabs (ver.7)

Wheatus Tabs
 Rating:
3.4/5 (9 votes)
Teenage Dirtbag lessons Tabs too difficult? Try these video lessons and learn fast
                

-0-0-0-0-0-0-0-0--------------------------------------------------------------
-5-5-5-5-5-5-5-5--------------------------------------------------------------
------------------------------------------------------------------------------
------------------------------------------------------------------------------
------------------------------------------------------------------------------
------------------------------------------------------------------------------
 -Chorus-  add distortion if u want for the full effect ,so to speak          

------------------------------------------------------------------------------
------------------------------------------------------------------------------
------2-2---4-4---------------------------------------------------------------
-2-2--2-2---4-4---------6-----------------------------------------------------
-2-2--0-0---2-2------4-------6------------------------------------------------
-0-0----------------------4---------------------------------------------------
                                                                              

------------------------------------------------------------------------------
------------------------------------------------------------------------------
------2-2--4-4----------------------------------------------------------------
-2-2--2-2--4-4-------6--------------------------------------------------------
-2-2--0-0--2-2-----4-----6---7---9--------------------------------------------
-0-0-------------------4---5---7----------------------------------------------
 the iron maiden part                                                         

------------------------------------------------------------------------------
------------------------------------------------------------------------------
----------2-2-2-2--4-4-4-4----------------------------------------------------
-2-2-2-2--2-2-2-2--4-4-4-4--------6-------------------------------------------
-2-2-2-2--0-0-0-0--2-2-2-2------4-----6---------------------------------------
-0-0-0-0----------------------------4-----------------------------------------
 p.m...................................                                       

------------------------------------------------------------------------------
------------------------------------------------------------------------------
----------2-2-2-2--4-4-4-4----------------------------------------------------
-2-2-2-2--2-2-2-2--4-4-4-4-----6----------------------------------------------
-2-2-2-2--0-0-0-0--2-2-2-2---4-----6----7---9---------------------------------
-0-0-0-0-------------------------4----5---7-----------------------------------
 p.m............                                                              

-0-0-0---0---0-0-0--0--0-0-0---0----------------------------------------------
-0-0-0---0---0-0-0--0--0-0-0---0----------------------------------------------
-1-1-1---0---1-1-1--0--1-1-1---0----------------------------------------------
-2-2-2---9---2-2-2--9--2-2-2---9----------------------------------------------
-2-2-2---9---2-2-2--9--2-2-2---9----------------------------------------------
-0-0-0---7---0-0-0--7--0-0-0---7----------------------------------------------
                                                                              

---------------0--------------------------------------------------------------
---------------0--------------------------------------------------------------
---------------1--------------------------------------------------------------
-2-------------2--------------------------------------------------------------
-0-------------2--------------------------------------------------------------
----4-2-4-2----0--------------------------------------------------------------
                                                                              
            
Submit corrections

comments powered by Disqus
↑ Back to top | Wheatus Tabs for Teenage Dirtbag. Lyrics for acoustic guitar and electric guitar. Tablatures and chords are parodies/interpretations of the original songs. You may use it for private study, scholarship, research or language learning purposes only