>
 >
Boss City 1

Boss City 1 Guitar Tabs

Wes Montgomery - Boss City 1 chords, tabs, tablatures, lyrics

Guitar lessons | Add/correct | Request | Top 50 tabs Artists:  A B C D E F G H I J K L M N O P Q R S T U V W X Y Z 0-9

Boss City 1 Guitar Tabs – Wes Montgomery

CD, Sheet music, Poster

Do you like Boss City 1? Share with your friends now
TabsTabs v2
BOSS CITY   -   Wes Montgomery




              [Brass Section]        [Guitar]
                 G AbA BbB    C13                   
E||--------------3-4-5-6-7-|--8--------------------|
B||------------6-5-6-7-8-9-|--10---------6----8----|
G||--------------4-5-6-7-8-|--9-------5------------|
D||--------------3-4-5-6-7-|--8----------3----5----|
A||------------------------|----------3------------|
E||------------------------|-----------------------|


          Fm7 Bb7                    Fm7 Bb7            
|---------------------------|-----------------------8--|
|---9-----9---6----9-----8--|--6-----9---6----9--------|
|*--------8---7-------7-----|--------8---7-------7--5--|
|*--6-----10--6----6-----5--|--3-----10--6----6--------|
|------8--8-----------5-----|-----5--8-----------5-----|
|-------------6-------------|------------6-------------|


        Fm7 Bb7                    Fm7 Bbm7M/4        
--------------------------|-----------------------8--|
--9-----9---6----9-----8--|--6-----9---6-------------|
--------8---7-------7-----|--------8---6----8--7--5--|
--6-----10--6----6-----5--|--3-----10--7-------------|
-----8--8-----------5-----|-----5--8---6----6--5-----|
------------6-------------|--------------------------|


        D9-Ab7                    G13Gb7            
-------------------------|----------------------8--|
--9-----4-------6-----8--|--6-----5--2-------------|
--------5--5-------7-----|--------4--3----8--7--5--|
--6-----4--4----3-----5--|--3-----3--2-------------|
-----8--5----------5-----|-----5----------6--5-----|
-----------4-------------|--------3--2-------------|


        Fm7 Bb7                Fm7                    
----------------------------|-----------------------||
--9-----9---6----9----------|--6---------6----8-----||
--------8---7-------7-10--7-|---------5------------*||
--6-----10--6----6----------|--3---------3----5----*||
-----8--8-----------5-8---5-|---------3-------------||
------------6---------------|-----------------------||


  Fm7       Fm7   B7/5-   Bb7                       
-----------------------|-------13--10--------------|
--6---------9-----6----|--6------------9--8--6-----|
---------8--8-----8----|--7----10--7------------7--|
--3---------10----7----|--6------------6--5--3-----|
------------8----------|------------------------5--|
------------------7----|--6------------------------|


               B7/5-     Bb7                      
----------------------|--------------------------|
--6----6/-9----6------|--6-----6--8/-9/-8--6-----|
---------------8------|--7--7-----------------7--|
--3----3/-6----7------|--6-----3--5/-6/-5--3-----|
----------------------|-----5-----------------5--|
---------------7------|--6-----------------------|


               B7/5-     Bb7                       
----------------------|-------13--10--------------|
--6----8/-4----6------|--6------------9--8--6-----|
---------------8------|--7----10--7------------7--|
--3----5/-1----7------|--6------------6--5--3-----|
----------------------|------------------------5--|
---------------7------|--6------------------------|


               Ab13      G13  Ab13 A13  Bb13 B13   
---------------4------|--3----4----5----6----7----|
--6----6/-9----6------|--5----6----7----8----9----|
---------------5------|--4----5----6----7----8----|
--3----3/-6----4------|--3----4----5----6----7----|
----------------------|---------------------------|
----------------------|---------------------------|


  C13                        Fm7   Bb7         
--8/-------------------|----------------------|
--10/--------6----8----|--9----------9-----8--|
--9/------5------------|----------------7-----|
--8/---------3----5----|--6----------6-----5--|
----------3------------|----------------5-----|
-----------------------|----------------------|


     Fm7   Bb7              Fm7   Bb7         
-------------------8--|----------------------|
--6----------9--------|--9----------9-----8--|
----------------7--5--|----------------7-----|
--3----------6--------|--6----------6-----5--|
----------------5-----|----------------5-----|
----------------------|----------------------|


     Fm7   Bbm7M/4          Bb7   Ab13/5-     
-------------------8--|----------------------|
--6----------9--------|--9----------6-----8--|
----------------7--5--|----------------7-----|
--3----------6--------|--6----------3-----5--|
----------------5-----|----------------5-----|
----------------------|----------------------|


     G7    Gb7M             Fm7   Bb7           
-------------------8--|------------------------|
--6-------------------|--9----------9----------|
-------------8--7--5--|----------------7-10--7-|
--3-------------------|--6----------6----------|
-------------6--5-----|----------------5-8---5-|
----------------------|------------------------|


  Fm7                          Fm7       Bb7       
----------13--11--8---------|--8------------------|
---------------------11--9--|-------6----9--------|
--10------10--8---5---------|--5------------------|
---------------------8---6--|-------3----6--------|
--8-------------------------|---------------------|
----------------------------|---------------------|


  Fm7        Bb7             Fm7        Bb7       
--------------------------|----------------------|
----11----9--11----9--11/-|--13----6----9--------|
--------------------------|----------------------|
----8-----6--8-----6--8/--|--10----3----6--------|
--------------------------|----------------------|
--------------------------|----------------------|


  Fm7        B7                Bb7            Ab7            
----------------------------|-------------------------------|
----11----9--11--12--11--9--|--11--12--11--9------9---------|
----------------------------|-----------------10-----10--7--|
----8-----6--8---9---8---6--|--8---9---8---6------6---------|
----------------------------|-----------------8------8---5--|
----------------------------|-------------------------------|


  G7            Gb7M          Fm7        Bb7        
--------10--13----10-------|-----------------------|
--6--9------------------9--|-------------9--9------|
--------7---10----7--------|--10----7--------------|
--3--6------------------6--|-------------6--6------|
---------------------------|--8-----5--------------|
---------------------------|-----------------------|


  Fm7       Bb7              Fm7         Bb7         
----13------16----13--11--|--8----------------------|
--------------------------|-----11--9----6----9--6--|
----10------13----10--8---|--5----------------------|
--------------------------|-----8---6----3----6--3--|
--------------------------|-------------------------|
--------------------------|-------------------------|


  Fm7       Bb7              Fm7       Bb7         
----13------16----13--11/-|--6--------------------|
--------------------------|-------9----6----9--6--|
----10------13----10--8/--|--3--------------------|
--------------------------|-------6----3----6--3--|
--------------------------|-----------------------|
--------------------------|-----------------------|


  Fm7           B7                 Bb7             Ab7              
----13--13/-11--13--13/-11--13--|--13/-10--13--13/-11--13--13/-11--|
--------------------------------|----------------------------------|
----10--10/-8---10--10/-8---10--|--10/-7---10--10/-8---10--10/-8---|
--------------------------------|----------------------------------|
--------------------------------|----------------------------------|
--------------------------------|----------------------------------|


  G7              Gb7M           Fm7        Bb7        
--13--13/-11--13/-6-----------|-----------------------|
-----------------------9-6/4--|--6----9----------6----|
--10--10/-8---10/-3-----------|----------5--8---------|
-----------------------6-3/1--|--3----6----------3----|
------------------------------|----------3--6---------|
------------------------------|-----------------------|


  Fm7         Bb7              Fm7           Bb7         
------10--13--13----10------|---------------------------|
------------------------11--|--9-------------------9----|
------7---10--10----7-------|-----10--10--7--10---------|
------------------------8---|--6-------------------6----|
----------------------------|-----8---8---5--8----------|
----------------------------|---------------------------|


  Fm7       Bb7               Fm7                                 
----------------------6----|--8----11----13----16----11----13----|
------------6----9---------|-------------------------------------|
------5--8------------3----|--5----8-----10----13----8-----10----|
------------3----6---------|-------------------------------------|
------3--6-----------------|-------------------------------------|
---------------------------|-------------------------------------|


                                                                    
--8----11-------------------------|--------------------------------|
-------------9----11----6----9----|--6----8----4----6--------------|
--5----8--------------------------|----------------------5----7----|
-------------6----8-----3----6----|--3----5----1----3--------------|
----------------------------------|----------------------3----5----|
----------------------------------|--------------------------------|


  G7             Gb7M        Fm7        Bb7          
--------------------------|-------------6--8--------|
--------------------------|-------6--9--------9--6--|
--3----5------------------|--5----------3--5--------|
------------3----6--------|-------3--6--------6--3--|
--1----3------------------|--3----------------------|
------------1----4--------|-------------------------|


  Fm7                                                
------------------------|--6--------------8/-6------|
--4--6--8--6----9----6--|----6-6--6--9---------6-6--|
------------------------|--3--------------5/-3------|
--1--3--5--3----6----3--|----3-3--3--6---------3-3--|
------------------------|---------------------------|
------------------------|---------------------------|


                                                          
--6/4-------------8/-6------|--6/4-------------8/-6------|
------6-6-6--9---------6-6--|------6-6-6--9---------6-6--|
--3/1-------------5/-3------|--3/1-------------5/-3------|
------3-3-3--6---------3-3--|------3-3-3--6---------3-3--|
----------------------------|----------------------------|
----------------------------|----------------------------|


  Fm7           B7             Bb7           Ab7          
--6/4-------------8/-6------|--6/4-------------8/-6------|
------6-6-6--9---------6-6--|------6-6-6--9---------6-6--|
--3/1-------------5/-3------|--3/1-------------5/-3------|
------3-3-3--6---------3-3--|------3-3-3--6---------3-3--|
----------------------------|----------------------------|
----------------------------|----------------------------|


  Gb7           Gb7M          Fm7           Bb7          
--6/4-------------13-------|--6/4-------------8/-6------|
------6-6-6--9--------6----|------6-6-6--9---------6-6--|
--3/1-------------10-------|--3/1-------------5/-3------|
------3-3-3--6--------3----|------3-3-3--6---------3-3--|
---------------------------|----------------------------|
---------------------------|----------------------------|


  Fm7                        Fm7         Bb7         
--6/4---6-----6/4---8-----|----------------8----13--|
------------6-----------6-|--4---4-6--9-------------|
--3/1---3-----3/1---5-----|----------------5----10--|
------------3-----------3-|--1---1-3--6-------------|
--------------------------|-------------------------|
--------------------------|-------------------------|


  Fm7                         Fm7                       
--6/4-------------8----13--|--6/4-------------8----13--|
------6-6-6--9-------------|------6-6-6--9-------------|
--3/1-------------5----10--|--3/1-------------5----10--|
------3-3-3--6-------------|------3-3-3--6-------------|
---------------------------|---------------------------|
---------------------------|---------------------------|


  B7                          Bb7            Ab7          
--6/4-------------8----13--|--16/13---11/8---6/4---------|
------6-6-6--9-------------|-----------------------6/4---|
--3/1-------------5----10--|--13/10---8/-5---3/1---------|
------3-3-3--6-------------|-----------------------3/1---|
---------------------------|-----------------------------|
---------------------------|-----------------------------|


  G7          Gb7M             Fm7           Bb7          
--------6/8---11/13---16----|--13--11--8--6--4-----------|
--6/9-----------------------|-------------------6--6--6--|
--------3/5---8/-10---13----|--10--8---5--3--1-----------|
--3/6-----------------------|-------------------3--3--3--|
----------------------------|----------------------------|
----------------------------|----------------------------|


  Fm7       Bb7            Fm7       Bb7          
--------------11----11--|---------4--6--4--------|
--6--9--------13----13--|------6-----------6--4--|
------------------------|---------1--3--1--------|
--3--6------------------|------3-----------3--1--|
------------------------|------------------------|
------------------------|------------------------|


  Fm7       Bb7            Fm7       Bb7          
--------------11----11--|---------4--6--4--------|
--6----9------13----13--|------6-----------6--4--|
------------------------|---------1--3--1--------|
--3----6----------------|------3-----------3--1--|
------------------------|------------------------|
------------------------|------------------------|


  Fm7                      Bb7         Ab7           
--------------11----11--|------16--13--11--8--6--4--|
--6----9------13----13--|---------------------------|
------------------------|------13--10--8---5--3--1--|
--3----6----------------|---------------------------|
------------------------|---------------------------|
------------------------|---------------------------|


  G7        Gb7M          Fm7         Bb7          
--------------11----7--|--------------4--6--8--6--|
--6----9------13-------|-----------6--------------|
--------------------4--|----5-5-5-----1--3--5--3--|
--3----6---------------|-----------3--------------|
-----------------------|----3-3-3-----------------|
-----------------------|--------------------------|


  Fm7       Bb7            Fm7           Bb7            
--4-------------11--13--|--13----11--13--13----11--13--|
-------6----------------|------------------------------|
--1-------------8---10--|--10----8---10--10----8---10--|
-------3----------------|------------------------------|
------------------------|------------------------------|
------------------------|------------------------------|


  Fm7          Bb7            Fm7         Bb7          
---------------------13----|----11--8--7--4-----------|
---------------------------|-----------------6--4-----|
--10----8--10--10----10----|----8---5--4--1--------5--|
---------------------------|-----------------3--1-----|
--8-----6--8---8-----------|-----------------------3--|
---------------------------|--------------------------|


  Fm7       B7/5-          Bb7           Ab7          
----------------10--13--|--16----15--13----11--8--7--|
------------------------|----------------------------|
--3-------------7---10--|--13----12--10----8---5--4--|
-------6----------------|----------------------------|
--1---------------------|----------------------------|
-------4----------------|----------------------------|


  G7          Gb7M          Fm7       Bb7          
--6--4-------------------|---------------4--6--8--|
--------6--4-------------|------------6-----------|
--3--1--------4--3-------|---------5-----1--3--5--|
--------3--1----------3--|--6---------3-----------|
--------------2--1-------|---------3--------------|
----------------------1--|--4---------------------|


  Fm7       Cm7            Fm7          Bb7         
--8--8--------13----11--|--13----11--8--6--4-------|
------------------------|---------------------6----|
--5--5--------10----8---|--10----8---5--3--1-------|
------------------------|---------------------3----|
------------------------|--------------------------|
------------------------|--------------------------|


  Fm7            Bb7            Fm7           Bb7           
---11/13--11--8--6-----------|---11/13--11----6/4----------|
---------------------6-9--6--|--------------------6--6--9--|
---8/-10--8---5--3-----------|---8/-10--8-----3/1----------|
---------------------3-6--3--|--------------------3--3--6--|
-----------------------------|-----------------------------|
-----------------------------|-----------------------------|


  Fm7           B7              Bb7           Ab7           
---11/13--11----6/4----------|---11/13--11----6/4----------|
--------------------6--6--9--|--------------------6--6--9--|
---8/-10--8-----3/1----------|---8/-10--8-----3/1----------|
--------------------3--3--6--|--------------------3--3--6--|
-----------------------------|-----------------------------|
-----------------------------|-----------------------------|


  G7             Gb7M           Fm7           Bb7           
---11/13--11---6-8/-4--------|---11/13--11----6/4----------|
-----------------------6--9--|--------------------6--6--9--|
---8/-10--8----3-5/-1--------|---8/-10--8-----3/1----------|
-----------------------3--6--|--------------------3--3--6--|
-----------------------------|-----------------------------|
-----------------------------|-----------------------------|


  Fm7         B7/5-          Bb7             Bdim             
----13----13----13----13--|--16--16--13--13/-16--16/-13--13/-|
--------------------------|----------------------------------|
----10----10----10----10--|--13--13--10--10/-13--13/-10--10/-|
--------------------------|----------------------------------|
--------------------------|----------------------------------|
--------------------------|----------------------------------|


  Cm7           Fm7            Bb7                      
--11--11/-8--8--6--4--------|---------------8--10--11--|
----------------------6--4--|-------8/---9-------------|
--8---8/--5--5--3--1--------|--7------------5--7---8---|
----------------------3--1--|-------5/---6-------------|
----------------------------|--5-----------------------|
----------------------------|--------------------------|


  F9             B7             Bb7         Eb9       
--8------------------10--13--|----------13-----------|
-----9--6--------------------|--9--9--------------6--|
--5--------7/-8------7---10--|----------10-----------|
-----6--3--------------------|--6--6--------------3--|
-----------5/-6--------------|-----------------------|
-----------------------------|-----------------------|


  Ab13      D7/9+         G13                       
-----------------------|---------------------------|
--6----6----6----6/-9--|--10----10----10/-6--------|
-----------------------|---------------------7/-3--|
--3----3----3----3/-6--|--7-----7-----7/--3--------|
-----------------------|---------------------5/-1--|
-----------------------|---------------------------|


  C9                           Fm7 Bb7            
----------------------|--------------------------|
------------6----8----|--9-----9---6----9-----8--|
--5--5----------------|--------8---7-------7-----|
------------3----5----|--6-----10--6----6-----5--|
--3--3----------------|-----8--8-----------5-----|
----------------------|------------6-------------|


        Fm7 Bb7                    Fm7 Bb7            
-----------------------8--|--------------------------|
--6-----9---6----9--------|--9-----9---6----9-----8--|
--------8---7-------7--5--|--------8---7-------7-----|
--3-----10--6----6--------|--6-----10--6----6-----5--|
-----5--8-----------5-----|-----8--8-----------5-----|
------------6-------------|------------6-------------|


        Fm7 Bbm7M/4                D9-Ab7            
-----------------------8--|-------------------------|
--6-----9---6-------------|--9-----4-------6-----8--|
--------8---6----8--7--5--|--------5--5-------7-----|
--3-----10--7-------------|--6-----4--4----3-----5--|
-----5--8---6----6--5-----|-----8--5----------5-----|
--------------------------|-----------4-------------|


        G13Gb7                    Fm7 Bb7              
----------------------8--|----------------------------|
--6-----5--2-------------|--9-----9---6----9----------|
--------4--3----8--7--5--|--------8---7-------7-10--7-|
--3-----3--2-------------|--6-----10--6----6----------|
-----5----------6--5-----|-----8--8-----------5-8---5-|
--------3--2-------------|------------6---------------|


  Fm7                          Fm7 Ab13           
----------------------|-----------------8--------|
--6---------6----8----|--9-----9---6----------8--|
---------5------------|--------8---5----5--7-----|
--3---------3----5----|--6-----10--4----------5--|
---------3------------|-----8--8-----------5-----|
----------------------|------------4-------------|


        G13Gb13                   Fm7 Bb7              
-------------------------|----------------------------|
--6-----5--4----4-----9--|--9-----9---6----9----------|
--------4--3----3--7-----|--------8---7-------7-10--7-|
--3-----3--2----------6--|--6-----10--6----6----------|
-----5-------------5-----|-----8--8-----------5-8---5-|
--------3--2-------------|------------6---------------|


  Fm7                
-------------------||
--6----------------||
-------------------||
--3----------------||
-------------------||
-------------------||





Comments


Popular Wes Montgomery tabs & chords
One For My Baby Chords
Angel Tabs
Boss City Tabs
Bumpin Tabs
Movin Wes Part 1 Tabs
Naptown Blues Tabs
West Coast Blues Tabs
Far Wes Ukulele
Four On Six Ukulele
One For My Baby Ukulele


Song lyrics



↑ Back to top | Tablatures and chords are parodies/interpretations of the original songs. You may use it for private study, scholarship, research or language learning purposes only
© 2014 AZChords.com Contact us | Privacy policy | DMCA | Add/correct tabs | Request tabs | Top 50 tabs