>
 >
Boss City

Boss City Guitar Tabs

Wes Montgomery - Boss City chords, tabs, tablatures, lyrics

Guitar lessons | Add/correct | Request | Top 50 tabs Artists:  A B C D E F G H I J K L M N O P Q R S T U V W X Y Z 0-9

Boss City Guitar Tabs – Wes Montgomery

CD, Sheet music, Poster

Do you like Boss City? Share with your friends now
TabsTabs v2
Boss City - John L. (Wes) Montgomery
Lead Guitar


                [ Horns ]           [Guitar]
                                                      
E||--------------3-4-5-6-7-|--8----------------------|
B||------------6-----------|-------------------------|
G||------------------------|-------------10----12----|
D||------------------------|---------10--------------|
A||------------------------|-------------8-----10----|
E||------------------------|---------8---------------|


    Fm7            Bb7              Fm7           Bb7            
|--------------------------------|------------------------------|
|--------------------------------|--------------------------13--|
|*--13------8---7----13------12--|--10-----8---7----13----------|
|*----------10--6--------12------|---------10--6--------12--10--|
|---11------8--------11------10--|--8---8--8--------11----------|
|-------13------6--------10------|-------------6--------10------|


  Fm7            Bb7              Fm7           Bb7/11+        
-------------------------------|------------------------------|
-------------------------------|--------------------------13--|
--13------8---7----13------12--|--10-----8---6----------------|
----------10--6--------12------|---------10--7----13--12--10--|
--11------8--------11------10--|--8---8--8---6----------------|
------13------6--------10------|------------------11--10------|


  D9-           Ab7              G13          Gb13           
------------------------------|-----------------------------|
------------------------------|-------------------------13--|
--13-----8---7----10------12--|--10-----9--6----------------|
------0--10--6--------12------|---------9--8----13--12--10--|
--11-----8--------8-------10--|--8---8-----7----------------|
-------------6--------10------|-----------------11--10------|


  Fm7            Bb7                Fm7                        
---------------------------------|---------------------------||
---------------------------------|---------------------------||
--13------8---7----13------------|--10----------10----12----*||
----------10--6--------12-15--12-|----------10--------------*||
--11------8--------11------------|--8-----------8-----10-----||
------13------6--------10-13--10-|----------8----------------||


  Fm7              B7/5-   Bb7                          
------------------------|------------------------------|
-------------------6----|--6----18--15-----------------|
--10------8--10----8----|--7------------13--12--10--7--|
-------------10----7----|--6----15--12-----------------|
--8----------8----------|---------------11--10--8---5--|
-------------------7----|--6---------------------------|


                  B7/5-     Bb7                           
-------------------------|-------------------------------|
------------------6------|--6----------------------------|
--10----12/-13----8------|--7--7--10--12/-13/-12--10--7--|
------------------7------|--6----------------------------|
--8-----10/-11-----------|-----5--8---10/-11/-10--8---5--|
------------------7------|--6----------------------------|


                 B7/5-     Bb7                          
------------------------|------------------------------|
-----------------6------|--6--18----15-----------------|
--10----12--8----8------|--7------------13--12--10--7--|
-----------------7------|--6--15----12-----------------|
--8-----10--6-----------|---------------11--10--8---5--|
-----------------7------|--6---------------------------|


                  Ab13      G13  Ab13 A13  Bb13 B13   
------------------4------|--3----4----5----6----7----|
------------------6------|--5----6----7----8----9----|
--10----12/-13----5------|--4----5----6----7----8----|
------------------4------|--3----4----5----6----7----|
--8-----10/-11-----------|---------------------------|
-------------------------|---------------------------|


  C13                        Fm7       Bb7            
--8/----------------------|--------------------------|
--10/---------------------|--------------------------|
--9/----------10----12----|--13----------13------12--|
--8/------10--------------|------------------12------|
--------------8-----10----|--11----------11------10--|
----------8---------------|------------------10------|


  Fm7       Bb7              Fm7       Bb7            
--------------------------|--------------------------|
----------------------13--|--------------------------|
--10----------13----------|--13----------13------12--|
------------------12--10--|------------------12------|
--8-----------11----------|--11----------11------10--|
------------------10------|------------------10------|


  Fm7       B7/9+            Bb7       A13/5-         
--------------------------|--------------------------|
----------------------13--|--------------------------|
--10----------13----------|--13----------10------12--|
------------------12--10--|------------------12------|
--8-----------11----------|--11----------8-------10--|
------------------10------|------------------10------|


  G7        Gb7M             Fm7       Bb7              
--------------------------|----------------------------|
----------------------13--|----------------------------|
--10----------------------|--13----------13------------|
--------------13--12--10--|------------------12-15--12-|
--8-----------------------|--11----------11------------|
--------------11--10------|------------------10-13--10-|


  Fm7                            Fm7         Bb7        
------------------------------|------------------------|
----------18--16--13----------|--13/-------------------|
--10------------------15--13--|--------10----13--------|
----------15--13--10----------|--10/-------------------|
--8-------------------13--11--|--------8-----11--------|
------------------------------|------------------------|


  Fm7         Bb7              Fm7         Bb7        
----------------------------|------------------------|
----------------------------|------------------------|
----15----13--15----13--15/-|--17/---10----13--------|
----------------------------|------------------------|
----13----11--13----11--13/-|--15/---8-----11--------|
----------------------------|------------------------|


  Fm7         B7                 Bb7             Ab7             
------------------------------|---------------------------------|
------------------------------|---------------------------------|
----15----13--15--16--15--13--|--15--16--15--13--10--13--10--7--|
------------------------------|---------------------------------|
----13----11--13--14--13--11--|--13--14--13--11--8---11--8---5--|
------------------------------|---------------------------------|


  G7              Gb7M           Fm7        Bb7          
------------------------------|-------------------------|
----------15--18----15/-------|-------------------------|
--10--13------------------13--|--10----7----13--13------|
----------12--15----12/-------|-------------------------|
--8---11------------------11--|--8-----5----11--11------|
------------------------------|-------------------------|


  Fm7       Bb7              Fm7           Bb7            
------------16------------|------------------------------|
----18------------18--16--|--13--------------------------|
------------13------------|------15--13----10----13--10--|
----15------------15--13--|--10--------------------------|
--------------------------|------13--11----8-----11--8---|
--------------------------|------------------------------|


  Fm7       Bb7              Fm7         Bb7            
------------16------------|----------------------------|
----18------------18--16--|----------------------------|
------------13------------|--15----13----10----13--10--|
----15------------15--13--|----------------------------|
--------------------------|--13----11----8-----11--8---|
--------------------------|----------------------------|


  Fm7           B7                 Bb7             Ab7              
--------------------------------|----------------------------------|
----18--18/-16--18--18/-16--18--|--18/-15--18--18/-16--18--18/-16--|
--------------------------------|----------------------------------|
----15--15/-13--15--15/-13--15--|--15/-12--15--15/-13--15--15/-13--|
--------------------------------|----------------------------------|
--------------------------------|----------------------------------|


  G7              Gb7M              Fm7           Bb7         
---------------------------------|---------------------------|
--18--18/-16--18/----------------|---------------------------|
------------------15----13-10/8--|--10----13------8----10----|
--15--15/-13--15/----------------|------------10-------------|
------------------13----11-8/-6--|--8-----11------6----8-----|
---------------------------------|------------8--------------|


  Fm7         Bb7              Fm7            Bb7          
----------------------------|-----------------------------|
------15--18--18----15------|-----------------------------|
------------------------15--|--13--10--10--7--10----13----|
------12--15--15----12------|-----------------------------|
------------------------13--|--11--8---8---5--8-----11----|
----------------------------|-----------------------------|


  Fm7        Bb7                  Fm7                                  
-------------------------------|--------------------16----------------|
-------------------------------|--13----16----18----------16----18----|
----------8--10----13----15----|--------------------13----------------|
------10-----------------------|--10----13----15----------13----15----|
----------6--8-----11----13----|--------------------------------------|
------8------------------------|--------------------------------------|


                                                                           
--------------------------------------|-----------------------------------|
--13----16----------------------------|-----------------------------------|
--------------13----15----10----13----|--10----12----8----10----5----7----|
--10----13----------------------------|-----------------------------------|
--------------11----13----8-----11----|--8-----10----6----8-----3----5----|
--------------------------------------|-----------------------------------|


  G7             Gb7M        Fm7           Bb7              
--------------------------|--------------------------------|
--------------------------|--------------------------------|
--3----5------------------|--------10--13--15--17--13--10--|
------------3----6--------|--10----------------------------|
--1----3------------------|--------8---11--13--15--11--8---|
------------1----4--------|--8-----------------------------|


  Fm7                                                              
-----------------------------|------------------------------------|
-----------------------------|------------------------------------|
--8--10--12--10----13----10--|--15-10-10--10--13----17/-15-10-10--|
-----------------------------|------------------------------------|
--6--8---10--8-----11----8---|--13-8--8---8---11----15/-13-8--8---|
-----------------------------|------------------------------------|


                                                                              
-------------------------------------|--------------------------------------|
-------------------------------------|--------------------------------------|
-15-13-10-10-10--13----17/-15-10-10--|--15-13-10-10-10--13----17/-15-10-10--|
-------------------------------------|--------------------------------------|
-13-11-8--8--8---11----15/-13-8--8---|--13-11-8--8--8---11----15/-13-8--8---|
-------------------------------------|--------------------------------------|


 Fm7                 B7                 Bb7                 Ab7              
-------------------------------------|--------------------------------------|
-------------------------------------|--------------------------------------|
-15-13-10-10-10--13----17/-15-10-10--|--15-13-10-10-10--13----17/-15-10-10--|
-------------------------------------|--------------------------------------|
-13-11-8--8--8---11----15/-13-8--8---|--13-11-8--8--8---11----15/-13-8--8---|
-------------------------------------|--------------------------------------|


  Gb7                 Gb7M           Fm7                 Bb7              
----------------------------------|--------------------------------------|
------------------------18--------|--------------------------------------|
--15-13-10-10-10--13--------10----|--15-13-10-10-10--13----17/-15-10-10--|
------------------------15--------|--------------------------------------|
--13-11-8--8--8---11--------8-----|--13-11-8--8--8---11----15/-13-8--8---|
----------------------------------|--------------------------------------|


  Fm7                                Fm7           Bb7          
----------------------------------|----------------------------|
----------------------------------|------------------------18--|
--15-13---15---10-15-13---17/--10-|--8---8-10--13----17--------|
----------------------------------|------------------------15--|
--13-11---13---8--13-11---15/--8--|--6---6-8---11----15--------|
----------------------------------|----------------------------|


  Fm7                                Fm7                              
----------------------------------|----------------------------------|
------------------------------18--|------------------------------18--|
--15-13-10-10-10--13----17--------|--15-13-10-10-10--13----17--------|
------------------------------15--|------------------------------15--|
--13-11-8--8--8---11----15--------|--13-11-8--8--8---11----15--------|
----------------------------------|----------------------------------|


  B7                                 Bb7             Ab7              
----------------------------------|--16/13---------------------------|
------------------------------18--|----------16/13-------------------|
--15-13-10-10-10--13----17--------|--13/10-----------15/13-----------|
------------------------------15--|----------13/10-----------15/13---|
--13-11-8--8--8---11----15--------|------------------13/11-----------|
----------------------------------|--------------------------13/11---|


  G7              Gb7M             Fm7             Bb7              
------------------11/13---16----|--13--11--------------------------|
----------11/13-----------------|----------13--11------------------|
--10/13-----------8/-10---13----|--10--8-----------13--10--10--10--|
----------8/-10-----------------|----------10--8-------------------|
--8/-11-------------------------|------------------11--8---8---8---|
--------------------------------|----------------------------------|


  Fm7         Bb7            Fm7         Bb7             
----------------11----11--|-----------------------------|
----------------13----13--|-----------------------------|
--10--13------------------|------10--13--15--13--10--8--|
--------------------------|-----------------------------|
--8---11------------------|------8---11--13--11--8---6--|
--------------------------|-----------------------------|


  Fm7         Bb7            Fm7         Bb7             
----------------11----11--|-----------------------------|
----------------13----13--|-----------------------------|
--10----13----------------|------10--13--15--13--10--8--|
--------------------------|-----------------------------|
--8-----11----------------|------8---11--13--11--8---6--|
--------------------------|-----------------------------|


  Fm7                        Bb7         Ab7             
----------------11----11--|------16--13--11-------------|
----------------13----13--|------------------13--11--9--|
--10----13----------------|------13--10--8--------------|
--------------------------|------------------10--8---6--|
--8-----11----------------|-----------------------------|
--------------------------|-----------------------------|


  G7          Gb7M           Fm7             Bb7              
----------------11--------|----------------------------------|
----------------13----12--|----------------------------------|
--10----13----------------|--------------10--13--15--17--15--|
----------------------9---|----10-10-10----------------------|
--8-----11----------------|--------------8---11--13--15--13--|
--------------------------|----8--8--8-----------------------|


  Fm7         Bb7            Fm7           Bb7            
------------------11--13--|--13----11--13--13----11--13--|
--------------------------|------------------------------|
--13----10--------8---10--|--10----8---10--10----8---10--|
--------------------------|------------------------------|
--11----8-----------------|------------------------------|
--------------------------|------------------------------|


  Fm7          Bb7            Fm7           Bb7            
---------------------13----|----11------------------------|
---------------------------|--------13--12----------------|
--10----8--10--10----10----|----8-----------13--10--8--5--|
---------------------------|--------10--9-----------------|
--8-----6--8---8-----------|----------------11--8---6--3--|
---------------------------|------------------------------|


  Fm7       B7/5-          Bb7           Ab7            
----------------10--13--|--16----15--13----11----------|
------------------------|----------------------13--12--|
--3-------------7---10--|--13----12--10----8-----------|
-------6----------------|----------------------10--9---|
--1---------------------|------------------------------|
-------4----------------|------------------------------|


  G7            Gb7M          Fm7       Bb7            
---------------------------|--------------------------|
--11--9--------------------|------------6--9--11--13--|
---------10--8--4--3-------|---------5----------------|
--8---6-----------------3--|--6---------3--6--8---10--|
---------8---6--2--1-------|---------3----------------|
------------------------1--|--4-----------------------|


  Fm7         Cm7            Fm7           Bb7           
----------------13----11--|--13----11-------------------|
--13--13------------------|------------13--11--9--------|
----------------10----8---|--10----8--------------10----|
--10--10------------------|------------10--8---6--------|
--------------------------|-----------------------8-----|
--------------------------|-----------------------------|


  Fm7             Bb7                Fm7           Bb7                
---11/13--11----------------------|---11/13--11----------------------|
--------------13--11--------------|----------------------------------|
---8/-10--8------------10-13--10--|---8/-10--8-----15-13-10--10--13--|
--------------10--8---------------|----------------------------------|
-----------------------8--11--8---|----------------13-11-8---8---11--|
----------------------------------|----------------------------------|


  Fm7           B7                   Bb7           Ab7                
---11/13--11----------------------|---11/13--11----------------------|
----------------------------------|----------------------------------|
---8/-10--8-----15-13-10--10--13--|---8/-10--8-----15-13-10--10--13--|
----------------------------------|----------------------------------|
----------------13-11-8---8---11--|----------------13-11-8---8---11--|
----------------------------------|----------------------------------|


  G7              Gb7M               Fm7           Bb7                
---11/13--11----------------------|---11/13--11----------------------|
----------------------------------|----------------------------------|
---8/-10--8----15-17/-13--10--13--|---8/-10--8-----15-13-10--10--13--|
----------------------------------|----------------------------------|
---------------13-15/-11--8---11--|----------------13-11-8---8---11--|
----------------------------------|----------------------------------|


  Fm7         B7/5-          Bb7             Bdim             
----13----13----13----13--|--16--16--13--13/-16--16/-13--13/-|
--------------------------|----------------------------------|
----10----10----10----10--|--13--13--10--10/-13--13/-10--10/-|
--------------------------|----------------------------------|
--------------------------|----------------------------------|
--------------------------|----------------------------------|


  Cm7           Fm7            Bb7                          
--11--11/-8--8--6--4--------|------------------------------|
----------------------6--4--|------------------13--15--16--|
--8---8/--5--5--3--1--------|--------12----13--------------|
----------------------3--1--|--12--------------10--12--13--|
----------------------------|--------10----11--------------|
----------------------------|--10--------------------------|


  F9                B7             Bb7           Eb9        
----------------------------13--|------------13------------|
--13--------------------15------|--------------------------|
------13--10--7--8----------10--|--13--13----10--------10--|
--10--------------------12------|--------------------------|
------11--8---5--6--------------|--11--11--------------8---|
--------------------------------|--------------------------|


  Ab13        D7/9+            G13                        
----------------------------|----------------------------|
----------------------------|----------------------------|
--10----10----10----10--13/-|--14----14----14--10--7--3--|
----------------------------|----------------------------|
--8-----8-----8-----8---11/-|--12----12----12--8---5--1--|
----------------------------|----------------------------|


  C9                       Fm7                      
------------------------|--------------------------|
------------------------|--------------------------|
--5--5------10----13----|--10----------10----12----|
------------------------|----------10--------------|
--3--3------8-----11----|--8-----------8-----10----|
------------------------|----------8---------------|


              Ab13                 G13       Gb13           
--------------------------------|-----------------------8--|
--------------------13----------|---------5--4----4--------|
--13------8---10------------12--|--10-----4--3----3--7-----|
----------10--10----10--12------|---------3--2----------6--|
--11------8---9-------------10--|--8---8-------------5-----|
------13----------------10------|---------3--2-------------|


  Fm7       Bb7                Fm7                
----------------------------|-------------------||
--9--------------9----------|--6----------------||
--------8---7-------7-10--7-|-------------------||
--6-----10--6----6----------|-------------------||
-----8--8-----------5-8---5-|--8----------------||
------------6---------------|-------------------||

*************************************************************

Isn't it Nice!





Comments


Popular Wes Montgomery tabs & chords
Far Wes Chords
Four On Six Chords
One For My Baby Chords
Bumpin Intro Tabs
Four On Six Tabs
Movin Wes Part 2 Tabs
Mr Walker Tabs
Round Midnight Tabs
West Coast Blues Tabs
Far Wes Ukulele


Song lyrics



↑ Back to top | Tablatures and chords are parodies/interpretations of the original songs. You may use it for private study, scholarship, research or language learning purposes only
© 2014 AZChords.com Contact us | Privacy policy | DMCA | Add/correct tabs | Request tabs | Top 50 tabs