>
 >
Bumpin

Bumpin Guitar Tabs

Wes Montgomery - Bumpin chords, tabs, tablatures, lyrics

Guitar lessons | Add/correct | Request | Top 50 tabs Artists:  A B C D E F G H I J K L M N O P Q R S T U V W X Y Z 0-9

Bumpin Guitar Tabs – Wes Montgomery

CD, Sheet music, Poster

Do you like Bumpin? Share with your friends now
TabsTabs v2
Bumpin' - John L. (Wes) Montgoemery
Lead Guitar


                                     Fm7             Bb7                
E||-------------------------------|------------------------------------|
B||------------------------9--11--|--9------9--------------11------13--|
G||--------------------10---------|-----10---------------------10------|
D||-------------------------------|------------------------------------|
A||-------------------------------|------------------------------------|
E||-------------------------------|------------------------------------|


  Fm7         Bb7                 Fm7             Bb7               
-------------------------------|-----------------------------------|
------------------------9--11--|--9------9-------------------------|
--------------------10---------|-----10---------------10----8------|
-------------------------------|-------------------------------10--|
-------------------------------|-----------------------------------|
-------------------------------|-----------------------------------|


  Fm7           Bb7                 Bbm7              Eb7                
---------------------------------|------11------------------------------|
--------------------------9--11--|--13------13--------------11----------|
--10------------------10---------|------------------------------10------|
---------------------------------|----------------------------------11--|
---------------------------------|--------------------------------------|
---------------------------------|--------------------------------------|


  Bbm7          Eb7                 Fm7             Bb7              
---------------------------------|----------------------------------|
--13----------------------9--11--|--9------9----------------11------|
----------------------10---------|-----10-----------------------10--|
---------------------------------|----------------------------------|
---------------------------------|----------------------------------|
---------------------------------|----------------------------------|


  Fm7           Bb7                 Db7                                       
--------------------------------|-------------------------------------------|
-13----------------------9--11--|--11h12p11p9-----9------------------9--11--|
---------------------10---------|-------------10-----------------10---------|
--------------------------------|-------------------------------------------|
--------------------------------|-------------------------------------------|
--------------------------------|-------------------------------------------|


  C9                                       
-------------------11---------------------|
--11------------13--------12p-11p-9-------|
-------------------------------------10p8-|
------------------------------------------|
------------------------------------------|
------------------------------------------|


  Fm7            Bb7                     Fm7           Bb7               
--------------------------------------|---------------------------------|
------9-------------------11--9-------|--------------------------9--11--|
--10---------------10--8---------10p8-|--10------------------10---------|
--------------------------------------|---------------------------------|
--------------------------------------|---------------------------------|
--------------------------------------|---------------------------------|


  Fm7             Bb7                  Fm          Bb7               
------------------------------------|-------------------------------|
--9------9--------------11------13--|------------------------9--11--|
-----10---------------------10------|--------------------10---------|
------------------------------------|-------------------------------|
------------------------------------|-------------------------------|
------------------------------------|-------------------------------|


  Fm              Bb7                     Fm            Bb7               
---------------------------------------|---------------------------------|
--9------9--------------9--11--9-------|--------------------------9--11--|
-----10-------------10------------10p8-|--10------------------10---------|
---------------------------------------|---------------------------------|
---------------------------------------|---------------------------------|
---------------------------------------|---------------------------------|


  Bbm7              Eb9                  Bbm7          Eb9               
--------------------------------------|---------------------------------|
--13------13--------------------------|--13----------------------9--11--|
------10--------------------------10--|----------------------10---------|
------------------------------11------|---------------------------------|
--------------------------13----------|---------------------------------|
--------------------------------------|---------------------------------|


  Fm                Bb7                    Fm              Bb7               
----------------------------------------|-----------------------------------|
--13------13--------------9--11------9--|--13------------------------9--11--|
------10--------------10---------10-----|------10----------------10---------|
----------------------------------------|-----------------------------------|
----------------------------------------|-----------------------------------|
----------------------------------------|-----------------------------------|


  Db7                                       
-------------------------------------------|
--11h12p11p9-----9------------------9------|
-------------10-----------------10-----10--|
-------------------------------------------|
-------------------------------------------|
-------------------------------------------|


  C9                                   Fm               Bb7                  
------------------------------------|---------------------------------------|
-----------------------------9--11--|--11------9--------------9--13---------|
--8----------------------10---------|------10-------------10---------10--8--|
-----10--------------10-------------|---------------------------------------|
------------------------------------|---------------------------------------|
------------------------------------|---------------------------------------|


  Fm            Bb7                   Fm                Bb7                
----------------------11-----------|--------------------------------------|
----------------13--------11----9--|--------------------------11------13--|
--10------------------8------------|--10------10----10------------10------|
----------------10--------8-----6--|--------------------------8-------10--|
-----------------------------------|--8-------8-----8-------------8-------|
-----------------------------------|--------------------------------------|


  Fm          Bb7                          Fm              Bb7                  
-----------13----11------------------|--------------------------------------|
-------------------------------------|--------------------------------------|
-----------10----8---15/-16/-15--13--|--10------10----------13--15--13--10--|
-------------------------------------|--------------------------------------|
---------------------13/-14/-13--11--|--8-------8-----------11--13--11--8---|
-------------------------------------|--------------------------------------|


  Fm          Bb7                    
------------------------------------|
------------------------------------|
----------------10--13--15--10--13--|
------------------------------------|
----------------8---11--13--8---11--|
------------------------------------|


  Bbm7                    Eb9                    
------------------------------------------------|
--11--14--16--11--14--16----14--16--18--14--16--|
------------------------------------------------|
--8---11--13--8---11--13----11--13--15--11--13--|
------------------------------------------------|
------------------------------------------------|


  Bbm7                   Eb9                  
-----------------------------13--11----------|
--11--14--11-------------------------13--11--|
--------------10--8--10------10--8-----------|
--8---11--8--------------------------10--8---|
--------------8---6--8-----------------------|
---------------------------------------------|


  Fm                  Bb7                  Fm            Bb7                  
---------------------------------------|--------------------------------11--|
---------------------------------------|--13------------------------12------|
-13--10--13------10--------15--10--13--|--------------------10--13------8---|
---------------------------------------|--10------------------------9-------|
-11--8---11------8---------13--8---11--|--------------------8---11----------|
---------------------------------------|------------------------------------|


  Db9                                    
--14--11--10----------------------------|
----------------12----------------------|
--11--8---7-----------13----------------|
----------------9---------13------11----|
----------------------11----------------|
--------------------------11------9-----|


  C9                                       Fm                Bb7                
---------13----16----13--11----------|--------------------------------------|
-----------------------------13--11--|--------------------------------------|
---------10----13----10--8-----------|--13--10--13--------------15--10--13--|
10---------------------------10--8---|--------------------------------------|
-------------------------------------|--11--8---11--------------13--8---11--|
-------------------------------------|--------------------------------------|


  Fm            Bb7                
----------------------------------|
----------------------------------|
--10----------------------10--13--|
------------------10--------------|
--8-----------------------8---11--|
------------------8---------------|


  Fm                    Bb7                    
----------------------------------------------|
--13------------------------------------------|
------10--13----10--13--15--10--13----10--13--|
--10------------------------------------------|
------8---11----8---11--13--8---11----8---11--|
----------------------------------------------|


  Fm                    Bb7                    
------11--------------------------------------|
--13------13----------------------------------|
------8---------10--13--15--13--10----10--13--|
--10------10----------------------------------|
----------------8---11--13--11--8-----8---11--|
----------------------------------------------|


  Fm                    Bb7                    
----------------------------------------------|
--13------------------------------------------|
------10--13----10--13--15--13--10----10--13--|
--10------------------------------------------|
------8---11----8---11--13--11--8-----8---11--|
----------------------------------------------|


  Fm                    Bb7                    
------11--------------------------------------|
--13------13--------------------------11--14--|
------8---------15--13--15--13--10------------|
--10------10--------------------------8---11--|
----------------13--11--13--11--8-------------|
----------------------------------------------|


  Bbm7                  Eb9                    
--13--16--13------------13------13------------|
----------------11--14------14--------11--14--|
--10--13--10------------10------10------------|
----------------8---11------11--------8---11--|
----------------------------------------------|
----------------------------------------------|


  Bbm7                  Eb9                      
--13------13--------------------13--------------|
------14--------11--14--16--14------------------|
--10------10--------------------10--10--15--13--|
------11--------8---11--13--11------------------|
------------------------------------8---13--11--|
------------------------------------------------|


  Fm                    Bb7                    
------11--------------------------------------|
--13------13----------------------------------|
------8---------15--13--15--10--13----15--10--|
--10------10----------------------------------|
----------------13--11--13--8---11----13--8---|
----------------------------------------------|


  Fm                    Bb7                      
------11----------------------------11----------|
--13------13----------------------------12--11--|
------8---------15--10--15--10--13--8-----------|
--10------10----------------------------9---8---|
----------------13--8---13--8---11--------------|
------------------------------------------------|


  Db9                                          
----------------------------------------------|
----------------------------------------------|
--10----13--13--10--13--15--10--13--15----10--|
----------------------------------------------|
--8-----11--11--8---11--13--8---11--13----8---|
----------------------------------------------|


  C9                                           
--------------13--11--------------------------|
--13----13------------11----------------------|
--------------10--8---------13-10-15----13-10-|
--10----10------------8-----------------------|
----------------------------11-8--13----11-8--|
----------------------------------------------|


  Fm                  Bb7                
----------------------------------------|
----------------------13----------------|
--15-13-10--------13--10--------10--13--|
----------------------------------------|
--13-11-8---------11------------8---11--|
----------------------------------------|


  Fm                  Bb7                
--------------------------13--13----13--|
--------------------------13--13----13--|
--15-13---10-8-5------------------------|
----------------------------------------|
--13-11---8--6-3------------------------|
----------------------------------------|


  Fm                  Bb7                
--13----16------13-11-------------13----|
--13------------------13----------13----|
--------13------10-8-----10-------------|
----------------------10----------------|
-------------------------8--------------|
----------------------------------------|


  Fm                      Bb7                
--13----16--13--11--------------13----13----|
--13----------------13-11-13----13----13----|
--------13--10--8---------------------------|
--------------------10-8--10----------------|
--------------------------------------------|
--------------------------------------------|


  Fm                  Bb7                    
--13----16----13--11--------------13----13--|
--13------------------13-11-------13----13--|
--------13----10--8---------10--------------|
----------------------10-8------------------|
----------------------------8---------------|
--------------------------------------------|


  Fm                  Bb7                      
--13----16----13--11------11------11------11--|
--13------------------13------13------13------|
--------13----10--8-------8-------8-------8---|
----------------------10------10------10------|
----------------------------------------------|
----------------------------------------------|


  Bbm7                  Eb9                     
-------------------------------------------11--|
--13--11--9--11------9--11------9--11--13------|
-----------------10---------10-------------8---|
--10--8---6--8-------6--8-------6--8---10------|
-----------------8----------8------------------|
-----------------------------------------------|


  Bbm7                  Eb9                      
----------------------------13--16--13--11------|
--13--11--9--11------9--11------------------13--|
-----------------10---------10--13--10--8-------|
--10--8---6--8-------6--8-------------------10--|
-----------------8------------------------------|
------------------------------------------------|


  Fm                   Bb7                
-----------------------------------------|
--11------9----------------11-----9------|
------10-----10----10---------------10-8-|
--8-------6----------------8------6------|
------8------8-----8----------------8--6-|
-----------------------------------------|


  Fm            Bb7                    
--------------------------------------|
--------------------------------------|
--10--------------10--13--15--10--13--|
--------------------------------------|
--8---------------8---11--13--8---11--|
--------------------------------------|


  Db9                                              
--11--14--11--14--11--14--11--14--11--14--11--14--|
--------------------------------------------------|
--8---11--8---11--8---11--8---11--8---11--8---11--|
--------------------------------------------------|
--------------------------------------------------|
--------------------------------------------------|


  C7/9-                                        
----13------12------11------10------9---------|
--------13------12------11------10-----9--13--|
----10------9-------8-------7-------6---------|
--------10------9-------8-------7------6--10--|
----------------------------------------------|
----------------------------------------------|


  Fm               Bb7                      
---------------------------13--11----------|
--13---------------11--------------13--11--|
------------10--9------10--10--8-----------|
--10---------------8---------------10--8---|
------------8---7------8-------------------|
-------------------------------------------|


  Fm                      Bb7/5+         Fm9         Bb13   Bb7/5+       
--------------------------8--8----11--|--8-----------8------8--8----11--|
--9-----------------------9--9--------|--8-----------8------9--9--------|
-----10----10--8--10------9--9--------|--9-----------7------9--9--------|
--6-----------------------8--8--------|--x-----------6------8--8--------|
-----8-----8---6--8-------------------|--11-----------------------------|
--------------------------------------|---------------------------------|


  Fm9         Bb13   Bb7/5+         Fm9         Bb13   Bb7/5+       
--8-----------8------8--8----11--|--8-----------8------8--8----11--|
--8-----------8------9--9--------|--8-----------8------9--9--------|
--9-----------7------9--9--------|--9-----------7------9--9--------|
--x-----------6------8--8--------|--x-----------6------8--8--------|
--11-----------------------------|--11-----------------------------|
---------------------------------|---------------------------------|


  Fm9         Bb13   Fm7              Bbm9       Eb9  BbmCm7Bbm7Cm7 C6   
--8-----------8------8---8-----11--|--8----------6----6--8--9---11--12--|
--8-----------8------9---9---------|--6----------6----6--8--9---11--10--|
--9-----------7------10--10--------|--6----------6----6--8--10--12--12--|
--x-----------6------x---x---------|--6----------8------------------10--|
--11-----------------8---8---------|------------------------------------|
-----------------------------------|------------------------------------|


  Db6 A  C  Bbm7 BbE      C#  E    Fm         Bb7    B13Bb13 Fm7 
--13------11--9----9--6----3----------|-------------6------7--6----4--|
--11--13--10--9----8--8----2--4----2--|--1----------6------9--8----4--|
--13--11--11--8----9--6----3--3----3--|--1----------7------8--7----5--|
--11--13------8---------------4----2--|--3----------6------7--6----6--|
--------------------------------------|-------------------------------|
--------------------------------------|-------------------------------|


  Fm                           
--1----------4/---------4--6--|
--1----------4/---------4--6--|
--1----------5/---------4--6--|
------------------------------|
------------------------------|
------------------------------|


                                                  
--7--9---11--11--11--11--11--11--11--11--11--11--|
--7--9---9---9---9---9---9---9---9---9---9---9---|
--8--10--11--11--11--11--11--11--11--11--11--11--|
-------------------------------------------------|
-------------------------------------------------|
-------------------------------------------------|


  C7/9-                                     Fm                            
--12--13--9--12--6--9--3--6-----3--x-----|--1----------8--------7--6--4--|
--11--14--8--11--5--8--2--5--5--2--2--5--|--1----------8--------7--6--4--|
--12--15--9--12--6--9--3--6--4--3--3--4--|--1----------7-----------------|
-----------------------------5--x--1--5--|--3----------6-----------------|
-----------------------------------------|-------------------------------|
-----------------------------------------|-------------------------------|


  Fm                                             12x
--1----------4--------------||--------------------||
--1----------4--------------||--------------------||
--1----------5--------------||*------------------*||
----------------------------||*------------------*||
----------------------------||--------------------||
----------------------------||--------------------||


                                Fm               Bb7                    
-----------------------------|-----------------------------------------|
--------------------------9--|--13------------9--11------9--11------9--|
----------------------10-----|------------10---------10---------10-----|
-----------------------------|-----------------------------------------|
-----------------------------|-----------------------------------------|
-----------------------------|-----------------------------------------|


  Fm               Bb7                   
-------------------11-10-11-------------|
-------------------13-12-13----------9--|
--10p8-10------------------------10-----|
----------------------------------------|
----------------------------------------|
----------------------------------------|


  Fm                      Bb7                  
------11------11------11----------------------|
--13------13------13------13------9--11----9--|
------------------------------10--------------|
----------------------------------------------|
----------------------------------------------|
----------------------------------------------|


  Fm               Bb7                 
--------------------------------------|
--11p9-------------------------9--11--|
-------10------------------10---------|
-----------------------10-------------|
--------------------------------------|
--------------------------------------|


  Bbm7              Eb9                    
------------------------------------------|
--13----------------------------------11--|
------------10------10----10--12--13------|
----------------11------------------------|
------------------------------------------|
------------------------------------------|


  Am7               Eb9                   
-----------------------------------------|
--13------------------------------9--11--|
------------10------10--------10---------|
----------------11--------11-------------|
-----------------------------------------|
-----------------------------------------|


  Fm                      Bb7                      
--------------------------------------------------|
--13--13--13--13--13--13--13--13--13------11------|
--------------------------------------10------10--|
--------------------------------------------------|
--------------------------------------------------|
--------------------------------------------------|


  Fm                     Bb7                 
--------------------------------------------|
--9----------------------------------9--11--|
-----10-8------------------------10---------|
----------10-8/6-------------10-------------|
-----------------8--------------------------|
--------------------------------------------|


  Db9                                           
--11--11--11--11--11--10p9p7-4p3---------------|
--12--12--12--12--12-------------4-2p0---------|
-----------------------------------------------|
-----------------------------------------------|
-----------------------------------------------|
-----------------------------------------------|


  C9                                    Fm              Bb7                   
-9----8--4--------------------------|---------------------------------------|
------------4-----------------------|--------------11--9--------------------|
------------------6p-5--------------|---------------------10--8-------------|
----------------6--------6----------|----------------------------10------8--|
---------------------------6p-4-----|--------------------------------11-----|
---------------------------------4/-|--8----1-------------------------------|


  Fm              Bb7                Fm           Bb7            3x
--------------------------------||-------------------------------||
--------------------------------||-------------------------------||
--------------------------------||*-----------------------------*||
--10/-8--6----------------------||*-----------------------------*||
--------------------------2--3--||------------------------2--3---||
--------------------------------||---1---------------------------||


   Fm           Bb7              Bbm7                        
------------------------------|-----------------------------|
------------------------------|-----------------------------|
*-----------------------------|-----------------------------|
*-----------------------2--3--|-----------------------------|
------------------------------|--1--------------------2--3--|
---1--------------------------|-----------------------------|


                              4x
------------------------------||
------------------------------||
-----------------------------*||
-----------------------------*||
--1--------------------2--3---||
------------------------------||


**************************************************************
It's a nice tune, isn't it!. Hope it works out fine!





Comments


Popular Wes Montgomery tabs & chords
Besame Mucho Intro Tabs
Con Alma Tabs
Days Of Wine And Roses Tabs
Mr Walker Tabs
Naptown Blues Tabs
Round Midnight Tabs
West Coast Blues Tabs
West Coast Blues 1 Tabs
While We Are Young Tabs
Far Wes Ukulele


Song lyrics



↑ Back to top | Tablatures and chords are parodies/interpretations of the original songs. You may use it for private study, scholarship, research or language learning purposes only
© 2014 AZChords.com Contact us | Privacy policy | DMCA | Add/correct tabs | Request tabs | Top 50 tabs