>
 >
Road Song

Road Song Guitar Tabs

Wes Montgomery - Road Song chords, tabs, tablatures, lyrics

Guitar lessons | Add/correct | Request | Top 50 tabs Artists:  A B C D E F G H I J K L M N O P Q R S T U V W X Y Z 0-9

Road Song Guitar Tabs – Wes Montgomery

CD, Sheet music, Poster

Do you like Road Song? Share with your friends now
Tabs
Road Song - John L. (Wes) Montgomery
(as been played on: Road Song A&M '68)


     Gm7                                                                      
E||-----------------------|------------------------|------------------------|
B||-------3-------3-------|--------3-------3-------|--------3-------3-------|
G||-------3-------3-------|--------3-------3-------|--------3-------3-------|
D||----3----------3-------|-----3----------3-------|-----3----------3-------|
A||----------5---------5--|-----------5---------5--|-----------5---------5--|
E||-3---------------------|--3---------------------|--3---------------------|


                           Gm                          Gm7                   
----------------------||----------------------------|-----------------------|
------3-------3-------||---8--11--11--8--11----8----|--------3-------3------|
------3-------3----7--||*---------------------------|--------3-------3------|
---3----------3-------||*--5--8---8---5--8-----5----|-----3-----------------|
---------5---------5--||----------------------------|-----------5-----------|
----------------------||----------------------------|--3--------------------|


  D7/9+/A                    D7/9+                  
--------------------------|------------------------|
--------------------------|--------6-------6-------|
--7--10--10--7--10--------|--------5-------5----7--|
--------------------------|-----4----------4-------|
--5--8---8---5--8---------|--5--------5----5----5--|
--------------------------|------------------------|


Gm             Bb7/F          Eb7M                      Em7/5-     Cm7       
---------------------------|-------------------------|----------------------|
8--11--11--11----13/---15--|----13----11----8----10/-|--11------8-----------|
---------------------------|-------------------------|-------------------7--|
5--8---8---8-----10/---12--|----10----8-----5----7/--|--8-------5-----------|
---------------------------|-------------------------|-------------------5--|
---------------------------|-------------------------|----------------------|


  D7/9+ Gm                  D7/9+ Gm              Cm                     
------------------------||---------------------|--8/--------------------|
------------------------||--------8------------|--8/-----------8----11/-|
--10----12--------7----*||--10-----------------|--8/------8-------------|
-----------------------*||--------5------------|--8/-----------5----8/--|
--8-----10--------5-----||--8------------------|--10/-----6-------------|
------------------------||---------------------|--8/--------------------|


  F7                                            Bm7        E7        
--------------------------|------------------|----------------------|
--15------13--10----8--6--|------------------|--7-------------------|
--------------------------|------------------|-------7--6--4--------|
--12------10--7-----5--3--|------------------|--4-------------------|
--------------------------|------------------|-------5--4--2--------|
--------------------------|------------------|----------------------|


  Bbm7                    Eb7                         
-----------------------|-----------------------------|
---------6----9----11/-|--13------11--8----6----4----|
----6------------------|-----------------------------|
---------3----6----8/--|--10------8---5----3----1----|
----4------------------|-----------------------------|
-----------------------|-----------------------------|


  Ab                                 Am7         D7         
----------------------------------|------------------------|
--4-4-4-4-4-4-4-4-4-4-4-4-4-4-4-4-|--7--7--7--7--7---------|
----------------------------------|-------------------7----|
--1-1-1-1-1-1-1-1-1-1-1-1-1-1-1-1-|--4--4--4--4--4---------|
----------------------------------|-------------------5----|
----------------------------------|------------------------|


Gm                          Gm7                     D7/9+/A                  
-------------------------|-----------------------|--------------------------|
8--11--11--8--11----8----|--------3-------3------|--------------------------|
-------------------------|--------3-------3------|--7--10--10--7--10--------|
5--8---8---5--8-----5----|-----3-----------------|--------------------------|
-------------------------|-----------5-----------|--5--8---8---5--8---------|
-------------------------|--3--------------------|--------------------------|


  D7/9+                    Gm             Bb7/F        
------------------------|-----------------------------|
--------6-------6-------|--8--11--11--11----13/---15--|
--------5-------5----7--|-----------------------------|
-----4----------4-------|--5--8---8---8-----10/---12--|
--5--------5----5----5--|-----------------------------|
------------------------|-----------------------------|


  Eb7M                      Em7/5-     Cm7         D7/9+ Gm                
-------------------------|----------------------|-------------10----15----|
----13----11----8----10/-|--11------8-----------|--------8----------------|
-------------------------|-------------------7--|--10---------7-----12----|
----10----8-----5----7/--|--8-------5-----------|--------5----------------|
-------------------------|-------------------5--|--8----------------------|
-------------------------|----------------------|-------------------------|


  Gm                                                        
--15----13----------------------|--------------------13----|
------------15--13--------------|----------------15--------|
--12----10----------15--12--12--|--------12--15------10----|
------------12--10--------------|----------------12--------|
--------------------13--10--10--|--------10--13------------|
--------------------------------|--------------------------|


  Am7/5-                        D7                             
-----------------------------|---------------------10----8----|
--15----13--15----13--10--8--|--6----5----4-------------------|
-----------------------------|---------------------7-----5----|
--12----10--12----10--7---5--|--3----2----1-------------------|
-----------------------------|--------------------------------|
-----------------------------|--------------------------------|


  Gm             Bb7/F             Eb7M                   
--6----4----8--------------6----|---------------9--8--6--|
-----------------8----6---------|--8---------------------|
--3----1----5--------------3----|-------7--5----6--5--3--|
-----------------5----3---------|--5---------------------|
--------------------------------|-------5--3-------------|
--------------------------------|------------------------|


  Em7/5-    Cm7            D7/9+      Gm                                    
------------------------|------------------5-----|--8----------------------|
------8--6--------------|---------------------6--|-------------------------|
------------7--5--3-----|--5-----3---------2-----|--5----10--7--10----7----|
------5--3-----------5--|-----5-------5-------3--|-------------------------|
------------5--3--1-----|--3-----1---------------|-------8---5--8-----5----|
---------------------3--|-----3-------3----------|-------------------------|


                              D7/9+                                             
------------------------|--------------------------|------------------------|
-10-------------10------|--10----------------------|--10---------------9----|
-------10----7------10--|--------10--8--10----8----|--------10----8---------|
-7--------------7-------|--7-----------------------|--7----------------6----|
-------8-----5------8---|--------8---6--8-----6----|--------8-----6---------|
------------------------|--------------------------|------------------------|


  Gm         Bb7/F          Eb7M                        
-------------------------|-----------------------------|
--8----8--7--6-----------|--------------8--11--13/-15--|
----------------7--------|--------7--8-----------------|
--5----5--4--3-----8--6--|--5--8--------5--8---10/-12--|
----------------5--------|--------5--6-----------------|
-------------------6--4--|--3--6-----------------------|


  Em7/5-      Cm7           D7/9+      Gm           
-------------------------|-------------------------|
----13----11----8--6-----|------------------8--11--|
----------------------7--|--5-----3----------------|
----10----8-----5--3-----|-----5-------5----5--8---|
----------------------5--|--3-----1----------------|
-------------------------|-----3-------3-----------|


  Cm                             F7                             
------------------------------|--------------------------------|
--15/-18--18----15--18--18----|--15/-18--18----15--18--18------|
------------------------------|----------------------------14--|
--12/-15--15----12--15--15----|--12/-15--15----12--15--15------|
------------------------------|----------------------------12--|
------------------------------|--------------------------------|


  Bb7M                       Bm7          E7           
------8----------------8--|--9----12--10--8--------8--|
---------10---------------|------------------7--------|
------5------10--------5--|--6----9---7---5-----7--5--|
---------7-------12-------|------------------4--------|
-------------8------------|---------------------5-----|
-----------------10-------|---------------------------|


  Bbm7                      Eb7                      
------11--8--------------|-------------7--8--9--10--|
-------------9--6--------|-------6--9---------------|
------8---5--------6--3--|----6--------4--5--6--7---|
-------------6--3--------|-------3--6---------------|
-------------------4--1--|----4---------------------|
-------------------------|--------------------------|


  Ab                          A          D7           
--11-----7--8--------------|--------------13----11----|
------9--------9-----------|----7--9--13--------------|
--8------4--5-----8--6--5--|--------------10----8-----|
------6--------6-----------|----4--6--10--------------|
------------------6--4--3--|--------------------------|
---------------------------|--------------------------|


 Gm                                                    D7/9+                 
-10----10----10----10--10--|----8----6--8--6--------|-----------------------|
---------------------------|------------------8-----|-----------------------|
-7-----7-----7-----7---7---|----5----3--5--3-----7--|----8----7--8----7--8--|
---------------------------|------------------5-----|-----------------------|
---------------------------|---------------------5--|----6----5--6----5--6--|
---------------------------|------------------------|-----------------------|


                             Gm         Bb7/F        
-------------------10--8--|--6-------8----------13--|
------------7--10---------|-----8-------9--6--------|
----7--8-----------7---5--|--3-------5----------10--|
------------4--7----------|-----5-------6--3--------|
----5--6------------------|-------------------------|
--------------------------|-------------------------|


Eb7M                           Em7/5-    Cm7           D7/9+      Gm         
10--13--10--------------10--|----8----6-------------|-----------------------|
-----------11--8------------|--------------8--6-----|-----------------------|
7---10--7---------8--7--7---|----5----3----------7--|--5-----3--------------|
-----------8---5------------|--------------5--3-----|-----5-------5------5--|
------------------6--5------|--------------------5--|--3-----1--------------|
----------------------------|-----------------------|-----3-------3---------|


 Gm7                                                 D7/9+                   
------------------------|-------------------------|-------------------------|
--3---5--3----8-8-8--8--|--3----5--3----8-8-8--8--|--6----8--6-----------8--|
*-3---5--3--------------|--3----5--3--------------|--5-------5----7-7-7-----|
*-3---5--3----5-5-5--5--|--3----5--3----5-5-5--5--|--4-------4-----------5--|
------------------------|-------------------------|--5-------5----5-5-5-----|
------------------------|-------------------------|-------------------------|


                          Gm         Bb7/F          Eb7M                     
-----------------------|-------------------------|-------10--8--------------|
6----8--6-----------5--|--3----5--8-----------8--|--6----8---8-----------8--|
5-------5----7-7-7--5--|--3----5--8-----------8--|--7----10--8----8-8-8-----|
4-------4-----------5--|--3----5--6----8-8-8--6--|--5----8---------------5--|
5-------5----5-5-5-----|----------8-----------8--|--6-------------6-6-6-----|
-----------------------|---------------6-6-6-----|--------------------------|


  Em7/5- Cm             D7/9+Gm               
--6------3-----------|-------3--------------||
--8------4--------3--|--6----3--------------||
--7------3-----------|--5----3-------------*||
---------5-----------|--4----5----------5--*||
--7------3-----------|--5-------------------||
---------------------|----------------------||


  Cm9                                       F7/9-                     Bb7M 
--6------------6------------6--------|------8------------8------------10--|
--8------------8------------8--------|------7------------7------------10--|
--8--10-10-10--8--10-10-10--8--10-10-|--10--8--10-10-10--8--10-10-10--10--|
--8------------8------------8--------|------7------------7------------8---|
-----8--8--8------8--8--8------8--8--|--8---8--8--8--8---8--8--8--8-------|
--8------------8------------8--------|------------------------------------|


            F7/9-        Bb              Bm9       Esus4      E9+/5-  
------------8------------6------------|--9--------------------6------|
------------7------------6------------|--7---------10---------8------|
--10-10-10--8--10-10-10--7--10-10-10--|--7--9-9-9--9---9-9-9--7--8-8-|
------------7------------8------------|--7---------9----------6------|
--8--8--8---8--8--8--8------8--8--8---|-----7-7-7--7---7-7-7--7--6-6-|
--------------------------------------|------------------------------|


     Bb9       Eb11      Bb          E                 
-----8---------4---------9--|---------6-----------------|
-----6---------6---------8--|---------5-----------------|
--8--7--8-8-8--6--8-8-8--9--|--8-8-8--6--8-8-8--8----8--|
-----6-------------------8--|---------5-----------------|
--6-----6-6-6--6--6-6-6-----|--6-6-6-----6-6-6--6----6--|
----------------------------|---------------------------|


  Ab7M      Ab       Ebm/    GbCm/5- Gbm/5-A Gb   Gm7                     
--8----8----4--------2--|----5--8-----8--------5--|-------------------------|
--8----8----4--3--4--4--|----4--7-----10-------4--|--3----5--3----8-8-8--8--|
--8----8----5--4--5--2--|----5--8-----11----8--5--|--3----5--3--------------|
--6----6----6-----------|----4--10----10----7--4--|--3----5--3----5-5-5--5--|
------------------------|-------------------------|-------------------------|
------------------------|-------------------------|-------------------------|


                            D7/9+                                             
------------------------|-------------------------|-------------------------|
-3----5--3----8-8-8--8--|--6----8--6-----------8--|--6----8--6-----------5--|
-3----5--3--------------|--5-------5----7-7-7-----|--5-------5----7-7-7--5--|
-3----5--3----5-5-5--5--|--4-------4-----------5--|--4-------4-----------5--|
------------------------|--5-------5----5-5-5-----|--5-------5----5-5-5-----|
------------------------|-------------------------|-------------------------|


  Gm         Bb7/F          Eb7M                       Em7/5- Cm           
-------------------------|-------10--8--------------|--6------3-----------|
--3----5--8-----------8--|--6----8---8-----------8--|--8------4--------3--|
--3----5--8-----------8--|--7----10--8----8-8-8-----|--7------3-----------|
--3----5--6----8-8-8--6--|--5----8---------------5--|---------5-----------|
----------8-----------8--|--6-------------6-6-6-----|--7------3-----------|
---------------6-6-6-----|--------------------------|---------------------|


  D7/9+Gm               Gm                          Gm7                   
-------3-------------|---------------------------|-----------------------|
--6----3-------------|--8--11--11--8--11----8----|--------3-------3------|
--5----3----------7--|---------------------------|--------3-------3------|
--4----5-------------|--5--8---8---5--8-----5----|-----3-----------------|
--5---------------5--|---------------------------|-----------5-----------|
---------------------|---------------------------|--3--------------------|


  D7/9+/A                    D7/9+                  
--------------------------|------------------------|
--------------------------|--------6-------6-------|
--7--10--10--7--10--------|--------5-------5----7--|
--------------------------|-----4----------4-------|
--5--8---8---5--8---------|--5--------5----5----5--|
--------------------------|------------------------|


Gm             Bb7/F          Eb7M                      Em7/5-     Cm7       
---------------------------|-------------------------|----------------------|
8--11--11--11----13/---15--|----13----11----8----10/-|--11------8-----------|
---------------------------|-------------------------|-------------------7--|
5--8---8---8-----10/---12--|----10----8-----5----7/--|--8-------5-----------|
---------------------------|-------------------------|-------------------5--|
---------------------------|-------------------------|----------------------|


  D7/9+ Gm                D7/9+ Gm              Cm                     
-----------------------|---------------------|--8/--------------------|
-----------------------|--------8------------|--8/-----------8----11/-|
--10----12--------7----|--10-----------------|--8/------8-------------|
-----------------------|--------5------------|--8/-----------5----8/--|
--8-----10--------5----|--8------------------|--10/-----6-------------|
-----------------------|---------------------|--8/--------------------|


  F7                                            Bm7        E7        
--------------------------|------------------|----------------------|
--15------13--10----8--6--|------------------|--7-------------------|
--------------------------|------------------|-------7--6--4--------|
--12------10--7-----5--3--|------------------|--4-------------------|
--------------------------|------------------|-------5--4--2--------|
--------------------------|------------------|----------------------|


  Bbm7                    Eb7                         
-----------------------|-----------------------------|
---------6----9----11/-|--13------11--8----6----4----|
----6------------------|-----------------------------|
---------3----6----8/--|--10------8---5----3----1----|
----4------------------|-----------------------------|
-----------------------|-----------------------------|


  Ab                                 Am7         D7         
----------------------------------|------------------------|
--4-4-4-4-4-4-4-4-4-4-4-4-4-4-4-4-|--7--7--7--7--7---------|
----------------------------------|-------------------7----|
--1-1-1-1-1-1-1-1-1-1-1-1-1-1-1-1-|--4--4--4--4--4---------|
----------------------------------|-------------------5----|
----------------------------------|------------------------|


Gm                          Gm7                     D7/9+/A                  
-------------------------|-----------------------|--------------------------|
8--11--11--8--11----8----|--------3-------3------|--------------------------|
-------------------------|--------3-------3------|--7--10--10--7--10--------|
5--8---8---5--8-----5----|-----3-----------------|--------------------------|
-------------------------|-----------5-----------|--5--8---8---5--8---------|
-------------------------|--3--------------------|--------------------------|


  D7/9+                    Gm             Bb7/F        
------------------------|-----------------------------|
--------6-------6-------|--8--11--11--11----13/---15--|
--------5-------5----7--|-----------------------------|
-----4----------4-------|--5--8---8---8-----10/---12--|
--5--------5----5----5--|-----------------------------|
------------------------|-----------------------------|


  Eb7M                      Em7/5-     Cm7         D7/9+ Gm              
-------------------------|----------------------|-----------------------|
----13----11----8----10/-|--11------8-----------|-----------------------|
-------------------------|-------------------7--|--10----12--------7----|
----10----8-----5----7/--|--8-------5-----------|-----------------------|
-------------------------|-------------------5--|--8-----10--------5----|
-------------------------|----------------------|-----------------------|


Gm             Bb7/F          Eb7M                      Em7/5-     Cm7       
---------------------------|-------------------------|----------------------|
8--11--11--11----13/---15--|----13----11----8----10/-|--11------8-----------|
---------------------------|-------------------------|-------------------7--|
5--8---8---8-----10/---12--|----10----8-----5----7/--|--8-------5-----------|
---------------------------|-------------------------|-------------------5--|
---------------------------|-------------------------|----------------------|


  D7/9+ Gm              
----------------------||
----------------------||
--10----12------------||
----------------------||
--8-----10------------||
----------------------||





Comments


Popular Wes Montgomery tabs & chords
Four On Six Chords
Angel Tabs
Besame Mucho Intro Tabs
Bumpin Tabs
Far Wes Tabs
Movin Wes Part 2 Tabs
Sues Waltz Tabs
While We Are Young Tabs
Far Wes Ukulele
Four On Six Ukulele


Song lyrics



↑ Back to top | Tablatures and chords are parodies/interpretations of the original songs. You may use it for private study, scholarship, research or language learning purposes only
© 2014 AZChords.com Contact us | Privacy policy | DMCA | Add/correct tabs | Request tabs | Top 50 tabs