» » »

Suzanne Tabs (ver.1)

Artists:  A B C D E F G H I J K L M N O P Q R S T U V W X Y Z # 

Suzanne Tabs (ver.1)

Weezer
Rating:
0/5 (0 votes)

Hard to play? Try these video lessons and learn fast.
                tuning: 1/2 step down

legend: bh= 1/2 bend, bf= full bend, v= vibrato

don't bother with the other tabs; theyre pretty off. if you cant properly play this along with the song, it is the timing of the notes that youre messing up. these tabs are nearly 100% correct.

E------------------------------------------------------------------------------------
B------------------------------------------------------------------------------------
G----------------------------------------13----13----13------------------------------
D--11-9-11-9------9-11-12bf-12-11-12v-12----16----16----16v-14-14-14h16-14\11-11-11--
A------------11bh--------------------------------------------------------------------
E------------------------------------------------------------------------------------


                                    
E-----------11/12-12-12-12-12-12-12-12-------------------------------------16--------
B--------------------------------------15-14-14-14h15-14-12-12-12-12-12-12----12-12--
G------------------------------------------------------------------------------------
D--11h14-14--------------------------------------------------------------------------
A------------------------------------------------------------------------------------
E------------------------------------------------------------------------------------



E-----16-------16-12-12-17v----------------------------------------------------------
B--12--------------------------------------------------------------------------------
G--------13-13-----------------------------------------------------------------------
D------------------------------------------------------------------------------------
A------------------------------------------------------------------------------------
E------------------------------------------------------------------------------------
            
Hard to play? Try these video lessons and learn fast. | Correct




comments powered by Disqus
↑ Back to top | Tablatures and chords are parodies/interpretations of the original songs. You may use it for private study, scholarship, research or language learning purposes only