» » »

Weezer, Suzanne Bass tabs (ver.2)

Artists:  A B C D E F G H I J K L M N O P Q R S T U V W X Y Z # 

Suzanne Bass tabs (ver.2)

Weezer Tabs
 Rating:
4/5 (4 votes)
Suzanne lessons Tabs too difficult? Try these video lessons and learn fast
1
                -------------------------------------------------------------------------------
			    Suzanne - Weezer
-------------------------------------------------------------------------------


Tuning: half step down

For some reason when i play the song i hear it as kind of like on 6 beats.
like 1-2-3-4-5-6 1-2-3-4-5-6 so listen and you'll get what i mean.

This is the chorus - 

G|---------------------------------------------------------------------------|
D|---------------------------------------------------------------------------|
A|--------5(x6)-7(x6)--------------5(x6)-------------------------------------|
E|-5(x12)-------------2(x12)-5(x6)-------2(x6)-4(x6)-5(x6)-7(x6)-------------|

G|---------------------------------------------------------------------------|
D|---------------------------------------------------------------------------|
A|--------5(x6)-7(x6)-(end of chorus)----------------------------------------|
E|-5(x12)--------------------------------------------------------------------|

Verse - 

G|---------------------------------------------------------------------------|
D|---------------------------------------------------------------------------|
A|---------------------------------------------------------------------------|
E|-2(x12)-7(x6)-5-5-5-5-7-5-0(x12)-5(x6)-4-4-4-4-5-7-2(x12)-7(x6)------------|

G|---------------------------------------------------------------------------|
D|---------------------------------------------------------------------------|
A|---------------------------------------------------------------------------|
E|-5-5-5-5-7-5-0(x10)-2-4-(back to chorus).----------------------------------|

After the 2nd chorus there is a 2nd verse and then the..

Bridge - kind of like wierd timing but you can get it.

G|---------------------------------------------------------------------------|
D|---------------------------------------------------------------------------|
A|-5--5-7-7-----5-5---5--5-7-7-----5-5---5--5-7-0---0-2-4--------------------|
E|----------5-5-----0----------5-5-----0----------0-------0(x12)-------------|

Play the verse again for the solo..

Outro chorus part..

G|---------------------------------------------------------------------------|
D|---------------------------------------------------------------------------|
A|--------5(x6)-7(x6)--------------5(x6)-------------------------------------|
E|-5(x12)-------------2(x12)-5(x6)-------2(x6)-4(x6)-5(x6)-7(x6)-------------|

G|---------------------------------------------------------------------------|
D|---------------------------------------------------------------------------|
A|--------5(x3)-7(x3)-everything stops for a few beats then-------5(x6)------|
E|-5(x12)---------------------------------------------------5(x6)-------5-5--|

| /  slide up
| \  slide down
| h  hammer-on
| p  pull-off
| ~  vibrato
| +  harmonic
| x  Mute note
===============================================================================
            
Submit corrections

comments powered by Disqus
↑ Back to top | Weezer Bass for Suzanne. Lyrics for acoustic guitar and electric guitar. 1 Tablatures and chords are parodies/interpretations of the original songs. You may use it for private study, scholarship, research or language learning purposes only