» » »

Weezer, Knock Down Drag Out Tabs (ver.1)

Artists:  A B C D E F G H I J K L M N O P Q R S T U V W X Y Z # 

Knock Down Drag Out Tabs (ver.1)

Weezer Tabs
 Rating:
4/5 (4 votes)
Knock Down Drag Out lessons Tabs too difficult? Try these video lessons and learn fast
                "(2)
Weezer
"Knock down drag out"
Weezer (Green Album)
Standard Tuning

Intro
Guitar 1
e---------------------------------------------------------------
b-----------------------------------------------------------------
g---------------------------------------------9999---------
d-9-10-9--------------------------------------------------------
a-------------------------------------------------------------------
E-------------------------------------------------------------------

Guitar 2
e-----------------------------------------------------------------
b--------------------------------------------------------------
g----------------------------------5-5--555--------
d---------6-6-6-3-3--3-8-8-8-5-5-5-5-5--555----------
a---------6-6-6-3-3--3-8-8-8-5-5-5-3-3--333-----------
E---------4-4-4-1-1--1-6-6-6-3-3-3----------------


Verse
Both Guitars (or maybe just one)
e-------)     ----)   ----)    -----)
b-------)     ----)   ----)      ---)
g-----5-)     ----)    ---)      -5-)      all 8 times each  (16th notes)    x2
d-----5-)     -3--)   -5--)      -5-)
a-----3-)     -3--)   -5--)      -3-)
E-------)     -1-)     3--)      ---)

Chorus
Both Guitars (or maybe just one)
e-------)    -----)      ----)     ----)    -----)     ----)    ----)   ----)
b-------)    -----)      ----)     ----)    -----)     ----)    ----)   ----)
g-------)    -----)      ----)     ----)     ----)     --7-)    ----)   ----)
d------2)    --3-)       --5-)     --6-)     --7-)     --7-)    --5-)   --5-)       a------2)    --3-)       --5-)     --6-)     --7-)     --5-)    --5-)   --5-)
E------0)    --1-)       --3-)     --4-)     --5-)     --5-)    --3-)   --3-)

Play Chorus chords 8 times each, 16th notes again. x1
Then both guitars play Guitar 2's intro

Guitar 2 plays verse while Guitar 1 plays this Solo.

Solo
e--------------------------------------------------------
b------------------------------------------------------------
g-9-9-9/5-5-5-454-4-4-2-4-5------------------------       listen to cd for timing.
d--------------------------------------------------------------
a--------------------------------------------------------------
E ------------------------------------------------------------  x2

Then play the chorus.
Then the verse at the end x3. 
sorry if it got screwd up when i copied and pasted it!
"            
Submit corrections

comments powered by Disqus
↑ Back to top | Weezer Tabs for Knock Down Drag Out. Lyrics for acoustic guitar and electric guitar. Tablatures and chords are parodies/interpretations of the original songs. You may use it for private study, scholarship, research or language learning purposes only