» » »

Knock Down Drag Out Tabs (ver.2)

Artists:  A B C D E F G H I J K L M N O P Q R S T U V W X Y Z # 

Knock Down Drag Out Tabs (ver.2)

Weezer
Rating:
0/5 (0 votes)

Hard to play? Try these video lessons and learn fast.
                PROPS GO TO: B.Chamberlain

Another awesome Weezer song. Cool intro.
Put on a little bit of distortion (gain)

Tuning:Standard(eBGDAE)

Intro:

e|-------------------------------|
B|-------------------------------|
G|-------------------------------|
D|-9-9-9-\7--7-7-/8--8-8-\6--6-6-| 1X
A|-9-9-9-\7--7-7-/8--8-8-\6--6-6-|
E|-7-7-7-\5--5-5-/6--6-6-\4--4-4-|


Chorus:

e|-------------------------------------------------------------------|
B|-------------------------------------------------------------------|
G|-------------------------------------------------------------------|
D|-8-8-8-8-8-8-8-8-8-8-8-9-9-9-9-9-9-9-9-9-9-9-7-7-7-7-7-7-7-7-7-7-7-| 4X
A|-8-8-8-8-8-8-8-8-8-8-8-9-9-9-9-9-9-9-9-9-9-9-7-7-7-7-7-7-7-7-7-7-7-|
E|-6-6-6-6-6-6-6-6-6-6-6-7-7-7-7-7-7-7-7-7-7-7-5-5-5-5-5-5-5-5-5-5-5-|

Solo:

e|-----------------------------------|
B|-----------------------------------|
G|--------------7-5------------------|
D|-15-12-11--10-----10-8-9-11-12-13b-| 2X
A|-----------------------------------|
E|-----------------------------------|

Thats it!
            
Hard to play? Try these video lessons and learn fast. | Correct




comments powered by Disqus
↑ Back to top | Tablatures and chords are parodies/interpretations of the original songs. You may use it for private study, scholarship, research or language learning purposes only