» » »

Weezer, Fall Together Tabs (ver.2)

Artists:  A B C D E F G H I J K L M N O P Q R S T U V W X Y Z # 

Fall Together Tabs (ver.2)

Weezer Tabs
 Rating:
4/5 (4 votes)
Fall Together lessons Tabs too difficult? Try these video lessons and learn fast
                hey,  this is Fall Together By Weezer... here it is

Standard Tuning
put your settings on a ton of crunch, really bassy too

INTRO-Main riff(palm muted)
E-12/--2---2-2-------------1-1--2-2-
A-14/--4---2-2---0h2---0---3-3--4-4-
D-14/--4---4-4---------2---3-3--4-4-                       2X
B----------------------2------------
G-----------------------------------
e-----------------------------------


Verse

E-2-2---5-5---0-0---2-2-------             (We go toether baby........)
A-4-4---7-7---2-2---4-4-------             then go back to main riff
D-4-4---7-7---2-2---4-4-------
B-----------------------------
G-----------------------------
e----------------------------


Chorus

E---------------------5-5-5-5-5-5-5-5-----
A--5-5-5-5-5-5-5-5----7-7-7-7-7-7-7-7----4-4-4-4-4-4-4-4----2-2-2-2-2-2-2-2---
D--7-7-7-7-7-7-7-7----7-7-7-7-7-7-7-7----6-6-6-6-6-6-6-6----4-4-4-4-4-4-4-4---
B--7-7-7-7-7-7-7-7-----------------------6-6-6-6-6-6-6-6----4-4-4-4-4-4-4-4---
G----------------------------------------------------------------------------
e----------------------------------------------------------------------------

Streamline, Mainline, falll together, get up      
Back to main riff

Bridge

E---0-----0-----0-----0-----5--------
A---2--2--2--2--2--2--2--5--7--------                  2X
D---2--4--2--4--2--4--2--7--7-------
B------4-----4-----4-----7----------
G-----------------------------------
e-----------------------------------


OK,  for the solo  the main riff and verse back it, i dont know the solo exactly, but what you do is,  start with a slide up to the 12th fret on the last string, then play in that high F# scale, then drop down to the 10th fret pentatonic, that should work out from there, have fun!!!

Conner Joyce-Age 15
            
Submit corrections

comments powered by Disqus
↑ Back to top | Weezer Tabs for Fall Together. Lyrics for acoustic guitar and electric guitar. Tablatures and chords are parodies/interpretations of the original songs. You may use it for private study, scholarship, research or language learning purposes only