» » »

Weezer, Fall Together Tabs (ver.3)

Artists:  A B C D E F G H I J K L M N O P Q R S T U V W X Y Z # 

Fall Together Tabs (ver.3)

Weezer Tabs
Rating:
0/5 (0 votes)
Fall Together lessons Tabs too difficult? Try these video lessons and learn fast
                Verse 1x
e|--------------|                       Intro 2x
b|--------------|                       Verse 1x
g|------------2-|                       Chorus 1x
d|-4--4-4-----2-|                       Verse 1x
a|-4--4-4-0-2-0-|                       Intro 2x
E|-2--2-2-------|                       Solo 1x
                                        Chorus 1x
Verse (palm-mute)                       Verse 1x
                                        Intro 1x
e|--------------------|                 Outro 1x
b|--------------------|
g|--------------------|
d|-4-4--7-7--2-2--4-4-|
a|-4-4--7-7--2-2--4-4-|
E|-2-2--5-5--0-0--2-2-|

Chorus:

e|-----------------------------------------------------------------|
b|-----------------------------------------------------------------|
g|-4-4-4-4-4-4-4-4-----------------6-6-6-6-6-6-6-6-----------------|
d|-4-4-4-4-4-4-4-4-6-6-6-6-6-6-6-6-6-6-6-6-6-6-6-6-7-7-7-7-7-7-7-7-|
a|-2-2-2-2-2-2-2-2-6-6-6-6-6-6-6-6-4-4-4-4-4-4-4-4-7-7-7-7-7-7-7-7-|
E|-----------------4-4-4-4-4-4-4-4-----------------5-5-5-5-5-5-5-5-|

Verse 2:

e|---------------------------------|
b|---------------------------------|
g|---------------------------------|
d|-4-4-4-4-4-4-4-4-7-7-7-7-7-7-7-7-|
a|-4-4-4-4-4-4-4-4-7-7-7-7-7-7-7-7-|
E|-0-2-0-2-0-0-2-2-5-0-0-5-0-5-5-0-|

Solo:

e|-2/-15b--13-12-11-12-13-11-12-14-13-14b---------14b-15b-----11b-10b--14b-15b-|
b|----------------------------------------16b-17b---------17b------------------|
g|-----------------------------------------------------------------------------|
d|-----------------------------------------------------------------------------|
a|-----------------------------------------------------------------------------|
E|-----------------------------------------------------------------------------|

Outro:

e|-------------------|
b|-------------------|
g|-------------------|
d|-3-3-2--3-3-2--2-2-|
a|-3-3-2--3-3-2--2-2-|
E|-1-1-0--1-1-0--0-0-|
            
Submit corrections

comments powered by Disqus
↑ Back to top | Weezer Tabs for Fall Together. Lyrics for acoustic guitar and electric guitar. Tablatures and chords are parodies/interpretations of the original songs. You may use it for private study, scholarship, research or language learning purposes only