» » »

Weezer, Christmas Celebration Bass tabs (ver.1)

Artists:  A B C D E F G H I J K L M N O P Q R S T U V W X Y Z # 

Christmas Celebration Bass tabs (ver.1)

Weezer Tabs
 Rating:
4/5 (4 votes)
Christmas Celebration lessons Tabs too difficult? Try these video lessons and learn fast
                
weezer has 2 christmas songs this one is my favroite of the 2

Tuning: E, A, D, G


Intro(1X)
|------------------------------------------------------------|
|------------------------------------------------------------|
|------------------------------------------------------------|
|-0-0-0-0-0-0-0-0--2-2-2-2-2-2-2-2-1-1-1-1-1-1-1-1-(13-13-13)|


Verse(4X)
|------------------------------------------------------------|
|------------------------------------------------------------|
|------------------------------------------------------------|
|-5-5-5-5-5-5--3-3-3-3-3-3--2-2-2-2-2-2--3-3-3-3-3-3---------|



Chorus(3X)
|------------------------------------------------------------|
|------------------------------------------------------------|
|------------------------------------------------------------|
|-0-0-0-0-0-0-0-0--2-2-2-2-2-2-2-2---------------------------|


Chorus part 2 "Can't get out the door..."
|------------------------------------------------------------|
|------------------------------------------------------------|
|------------------------------------------------------------|
|-1-1-1-1-1-1-1-1-1-1-1-1-1-1--------------------------------|


Verse(2X)
|------------------------------------------------------------|
|------------------------------------------------------------|
|------------------------------------------------------------|
|-5-5-5-5-5-5--3-3-3-3-3-3--2-2-2-2-2-2--3-3-3-3-3-3---------|


Chorus(3X)
|------------------------------------------------------------|
|------------------------------------------------------------|
|------------------------------------------------------------|
|-0-0-0-0-0-0-0-0--2-2-2-2-2-2-2-2---------------------------|


Chorus part 2 "Can't get out the door..."
|------------------------------------------------------------|
|------------------------------------------------------------|
|------------------------------------------------------------|
|-1-1-1-1-1-1-1-1-1-1-1-1-1-1--------------------------------|

Guitar Solo(2X)
|------------------------------------------------------------|
|------------------------------------------------------------|
|------------------------------------------------------------|
|-5-5-5-5-5-5--3-3-3-3-3-3--2-2-2-2-2-2--3-3-3-3-3-3---------|


Chorus(3X)
|------------------------------------------------------------|
|------------------------------------------------------------|
|------------------------------------------------------------|
|-0-0-0-0-0-0-0-0--2-2-2-2-2-2-2-2---------------------------|


Chorus part 2 "Can't get out the door..."
|------------------------------------------------------------|
|------------------------------------------------------------|
|------------------------------------------------------------|
|-1-1-1-1-1-1-1-1-1-1-1-1-1-1--------------------------------|

Verse(2X)
|------------------------------------------------------------|
|------------------------------------------------------------|
|------------------------------------------------------------|
|-5-5-5-5-5-5--3-3-3-3-3-3--2-2-2-2-2-2--3-3-3-3-3-3---------|

Outro/Guitar solo
Verse(2X)
|------------------------------------------------------------|
|------------------------------------------------------------|
|------------------------------------------------------------|
|-5-5-5-5-5-5--3-3-3-3-3-3--2-2-2-2-2-2--3-3-3-3-3-3---------|



Last Note
|---------------|
|---------------|
|---------------|
|----5(HOLD)----|
            
Submit corrections

comments powered by Disqus
↑ Back to top | Weezer Bass for Christmas Celebration. Lyrics for acoustic guitar and electric guitar. Tablatures and chords are parodies/interpretations of the original songs. You may use it for private study, scholarship, research or language learning purposes only