>
 >
Christmas Celebration 2

Christmas Celebration 2 Bass Tabs

Weezer - Christmas Celebration 2 chords, tabs, tablatures, lyrics

Guitar lessons | Add/correct | Request | Top 50 tabs Artists:  A B C D E F G H I J K L M N O P Q R S T U V W X Y Z 0-9

Christmas Celebration 2 Bass Tabs – Weezer

CD, Sheet music, Poster

Do you like Christmas Celebration 2? Share with your friends now
Bass TabsBass Tabs v2TabsTabs v2

CHRISTMAS CELEBRATION (Bassline)
As recorded by Weezer
(From the 2000 Album CHRISTMAS CD)

	

Words and Music by Weezer
Arranged by Weezer

Gtr I (E A D G) - 'Untitled'

 Intro
  Q=135
 4/4
  Gtr I
  E E E E E E E E   E E E E E E E E   E E E E E E E E   E E E E E E E E
|-----------------|-----------------|-----------------|-----------------|
|-----------------|-----------------|-----------------|-----------------|
|-----------------|-----------------|-----------------|-----------------|
|-0-0-0-0-0-0-0-0-|-2-2-2-2-2-2-2-2-|-1-1-1-1-1-1-1-1-|-1-1-1-1-1-1-1-1-|


   Verse
    E E E E E E E E   E E E E E E E E   E E E E E E E E   E E E E E E E E  4x
||------------------|-----------------|-----------------|------------------||
||o-----------------|-----------------|-----------------|-----------------o||
||o-----------------|-----------------|-----------------|-----------------o||
||--5-5-5-5-5-5-5-5-|-3-3-3-3-3-3-3-3-|-2-2-2-2-2-2-2-2-|-3-3-3-3-3-3-3-3--||


   Chorus
    E E E E E E E E   E E E E E E E E  3x     E E E E E E E E
||------------------|------------------||-||-------------------||
||o-----------------|-----------------o||-||o-----------------o||
||o-----------------|-----------------o||-||o-----------------o||
||--0-0-0-0-0-0-0-0-|-2-2-2-2-2-2-2-2--||-||--3-3-3-3-3-3-3-3--||


   Verse
    E E E E E E E E   E E E E E E E E   E E E E E E E E   E E E E E E E E  4x
||------------------|-----------------|-----------------|------------------||
||o-----------------|-----------------|-----------------|-----------------o||
||o-----------------|-----------------|-----------------|-----------------o||
||--5-5-5-5-5-5-5-5-|-3-3-3-3-3-3-3-3-|-2-2-2-2-2-2-2-2-|-3-3-3-3-3-3-3-3--||


   Chorus
    E E E E E E E E   E E E E E E E E  3x     E E E E E E E E
||------------------|------------------||-||-------------------||
||o-----------------|-----------------o||-||o-----------------o||
||o-----------------|-----------------o||-||o-----------------o||
||--0-0-0-0-0-0-0-0-|-2-2-2-2-2-2-2-2--||-||--3-3-3-3-3-3-3-3--||


   Verse
    E E E E E E E E   E E E E E E E E   E E E E E E E E   E E E E E E E E
||------------------|-----------------|-----------------|------------------||
||o-----------------|-----------------|-----------------|-----------------o||
||o-----------------|-----------------|-----------------|-----------------o||
||--5-5-5-5-5-5-5-5-|-3-3-3-3-3-3-3-3-|-2-2-2-2-2-2-2-2-|-3-3-3-3-3-3-3-3--||


   Chorus
    E E E E E E E E   E E E E E E E E  3x     E E E E E E E E
||------------------|------------------||-||-------------------||
||o-----------------|-----------------o||-||o-----------------o||
||o-----------------|-----------------o||-||o-----------------o||
||--0-0-0-0-0-0-0-0-|-2-2-2-2-2-2-2-2--||-||--3-3-3-3-3-3-3-3--||


   Out-Chorus
    E E E E E E E E   E E E E E E E E   E E E E E E E E   E E E E E E E E
||------------------|-----------------|-----------------|------------------||
||o-----------------|-----------------|-----------------|-----------------o||
||o-----------------|-----------------|-----------------|-----------------o||
||--5-5-5-5-5-5-5-5-|-3-3-3-3-3-3-3-3-|-2-2-2-2-2-2-2-2-|-3-3-3-3-3-3-3-3--||


   Outro
    E E E E E E E E   E E E E E E E E
||------------------|------------------||
||o-----------------|-----------------o||
||o-----------------|-----------------o||
||--5-5-5-5-5-5-5-5-|-3-3-3-3-3-3-3-3--||


  E E E E E E E E   E E E E E E E E   W
|-----------------|-----------------|------*|
|-----------------|-----------------|------*|
|-----------------|-----------------|------*|
|-2-2-2-2-2-2-2-2-|-3-3-3-3-3-3-3-3-|-5----*|



Duration Legend
---------------
W - whole; H - half; Q - quarter; E - 8th; S - 16th; T - 32nd; X - 64th; a - acciaccatura
+ - note tied to previous; . - note dotted; .. - note double dotted
Uncapitalized letters represent notes that are staccato (1/2 duration)
Irregular groupings are notated above the duration line
Duration letters will always appear directly above the note/fret number it represents the
duration for.  Duration letters with no fret number below them represent rests.  Multi-
bar rests are notated in the form Wxn, where n is the number of bars to rest for.  Low
melody durations appear below the staff

Tablature Legend
----------------
 h   - hammer-on
 p   - pull-off
 b   - bend
 pb  - pre-bend
 r   - bend release (if no number after the r, then release immediately)
 /\  - slide into or out of (from/to "nowhere")
 s   - legato slide
 S   - shift slide
 - natural harmonic
[n]  - artificial harmonic
n(n) - tapped harmonic
 ~   - vibrato
 tr  - trill
 T   - tap
 TP  - trem. picking
 PM  - palm muting
\n/  - tremolo bar dip; n = amount to dip
 \n  - tremolo bar down
 n/  - tremolo bar up
/n\  - tremolo bar inverted dip
 =   - hold bend; also acts as connecting device for hammers/pulls
 <> - volume swell (louder/softer)
 x   - on rhythm slash represents muted slash
 o   - on rhythm slash represents single note slash

Misc Legend
-----------
 |  - bar
||  - double bar
||o - repeat start
o|| - repeat end
*|  - double bar (ending)
 :  - bar (freetime)
 $  - Segno
 &  - Coda
Tempo markers -  = BPM(8/16=s8/s16), where s8 = swing 8ths, s16 = swing 16ths





Comments


Popular Weezer tabs & chords
El Scorcho 2 Bass Tabs
Heart Songs Bass Tabs
Say It Aint So 3 Bass Tabs
We Are All On Drugs Drum Tabs
El Scorcho 2 Tabs
No One Else 4 Tabs
Say It Ain T So Tabs
Say It Ain't So 2 Tabs
Falling For You Ukulele
In The Garage Ukulele


Song lyrics



↑ Back to top | Tablatures and chords are parodies/interpretations of the original songs. You may use it for private study, scholarship, research or language learning purposes only
© 2014 AZChords.com Contact us | Privacy policy | DMCA | Add/correct tabs | Request tabs | Top 50 tabs