» » »

Ween, Springtheme Tabs (ver.1)

Artists:  A B C D E F G H I J K L M N O P Q R S T U V W X Y Z # 

Springtheme Tabs (ver.1)

Ween Tabs
 Rating:
4/5 (4 votes)
Springtheme lessons Tabs too difficult? Try these video lessons and learn fast
                -------------------------------------------------------------------------------
-------------------------------------------------------------------------------

Tuning: Standard

This might look like a bit of mess, but you basically bend the G string at the 12th fret 
up to the 14th fret and back doing a pull off to the 11th fret. Just listen closely to
the riff and you'll get the feel of it.

Main 
e|---------------------------------------------------------------------------|
B|---------------------------------------------------------------------------|
G|---------11--12-12^14--12b14r12p11-12b14r12p11-12p11-----------------------|
D|-----12----------------------------------------------12--------------------|
A|--------------------------------------------------------12-----------------|
E|---------------------------------------------------------------------------|

Chorus riff
e|---------------------------------------------------------------------------|
B|---------------------------------------------------------------------------|
G|----------------5---7-7----------------------------------------------------|
D|----------------3---5-5----------------------------------------------------|
A|-------5-5---7-------------------------------------------------------------|
E|-------3-3---5-------------------------------------------------------------|


Good morning my love 
The skies are clearing up today 
Can I kiss you on the boob like I did yesterday? 
You let me in, you let me sin 
You made me cry, you got me high 
Can I touch you in the nude? 
You lookin' really good in bed 
How come you ain't talkin' like we was yesterday? 
You let me in, you let me sin 
You made me cry, you got me high 
Wake up little wakeup 
Got somethin' to say 
Don't move a muscle 
I'm gettin' dressed and I can't stay 
Ohh, you let me in, you let me sin 
You made me cry, you got me high 
You let me in, you got me high, 
Got me high, got me high, high, high 
Good morning love, 
Good morning my love



| /  slide up
| \  slide down
| h  hammer-on
| p  pull-off
| ~  vibrato
| +  harmonic
| x  Mute note
| b  bend
| r  release
===============================================================================
            
Submit corrections

comments powered by Disqus
↑ Back to top | Ween Tabs for Springtheme. Lyrics for acoustic guitar and electric guitar. Tablatures and chords are parodies/interpretations of the original songs. You may use it for private study, scholarship, research or language learning purposes only