» » »

Ween, Seconds Tabs (ver.1)

Artists:  A B C D E F G H I J K L M N O P Q R S T U V W X Y Z # 

Seconds Tabs (ver.1)

Ween Tabs
 Rating:
4/5 (4 votes)
Seconds lessons Tabs too difficult? Try these video lessons and learn fast
1
                This song "Seconds" is an outtake from GodWeenSatan. They played this a lot when they 
touring as a duo. One of my favorites.

Intro
e|-----------------------|
B|-----------------------|
G|-----------------------|
D|-------7---------------|
A|-7--9-----9--7---------|
E|----------------9--7---|

Verse (Listen to the song for proper amount you play each chord)
e|-----------------------------------------------|
B|-----------------------------------------------|
G|-888---666---999--888--------------------------|
D|-999---777---999--999----Fill------------------|
A|-999---777---777--999--------------7-----------|
E|-777---555--------777----------7h9--9-7-0------|

(For the Fill. It's right after you play the last chord. Play it fast and then go right 
the chord again)

Chorus
e|---------------------------|
B|-2--3--4----------3-2------|
G|-2--3--4-4--X3-4--3-2------|
D|-2--3--4-4-----4--3-2--4---|
A|---------2-----2-------4---|
E|-----------------------2---|

Weird "Wah wah wah" voice solo thing
e|---------------------------------------------------|
B|---------------------------------------------------|
G|-------------------------------------------9-8-7---|
D|---7-77-9b---7------------7---77-9b----7-----------|
A|-9--9-------9-9-9-8-7---9---9--------9--9----------|
E|---------------------------------------------------|

For the full solo I'm at a loss. If anyone knows please contact me at
            
Submit corrections

comments powered by Disqus
↑ Back to top | Ween Tabs for Seconds. Lyrics for acoustic guitar and electric guitar. 1 Tablatures and chords are parodies/interpretations of the original songs. You may use it for private study, scholarship, research or language learning purposes only