» » »

Ween, Papa Zit Tabs (ver.1)

Artists:  A B C D E F G H I J K L M N O P Q R S T U V W X Y Z # 

Papa Zit Tabs (ver.1)

Ween Tabs
 Rating:
4/5 (4 votes)
Papa Zit lessons Tabs too difficult? Try these video lessons and learn fast
                Papa Zit from GodWeenSatan
Tuning: Standard
b- bend
lr- let ring

Main Riff 1
e|-13-0--10--0------------------------------------|
B|-------------13-0--10-0-------------------------|
G|-------------------------12-10-12-12b13b12------|
D|--------------------------------------------12--|
A|------------------------------------------------|
E|------------------------------------------------|

"This. Is. The sh*ttttt." riff
e|-----------------|
B|-----------------|
G|---------12-13b--|
D|-12--15----------|
A|-----------------|
E|-----------------|

Breakdown riff
e|------------------------------------------|
B|------------------------------------------|
G|-77--1010--77--10--12-----7--10--12--13---|
D|-77--1010--77--10--12-X2--7--10--12--13---|
A|-55---88---55--8---10-----5--8---10--11---|
E|------------------------------------------|

Main Riff 2
e|-------7----------|
B|---------7--6-5-6-|
G|-7----------6-5-6-|
D|-7lr--------------|
A|-5----------------|
E|------------------|

"This. Is. The Shiittt"
e|-----------------|
B|-----------------|
G|-7--10--12--13---|
D|-7--10--12--13---|
A|-5--8---10--11---|
E|-----------------|

As for the last riff/solo I have no idea.
            
Submit corrections

comments powered by Disqus
↑ Back to top | Ween Tabs for Papa Zit. Lyrics for acoustic guitar and electric guitar. Tablatures and chords are parodies/interpretations of the original songs. You may use it for private study, scholarship, research or language learning purposes only