» » »

Ween, Loop De Loop Chords (ver.1)

Artists:  A B C D E F G H I J K L M N O P Q R S T U V W X Y Z # 

Loop De Loop Chords (ver.1)

Ween Tabs
 Rating:
4/5 (4 votes)
Loop De Loop lessons Tabs too difficult? Try these video lessons and learn fast
1
                ----------------------------------------------------------------------------
                           Loop De Loop-Ween
----------------------------------------------------------------------------


Tuning:Standard

Chords used:

   C   G   D  D6
e---0---3---2--7----|
B---1---0---3--7----|
G---0---0---2--7----|
D---2---0---0--7----|
A---3---2------5----|
E---x---3-----------|


Intro:
C G D G

        G
Wanna learn how to tie your shoe
        C                 G
It's a very easy thing to do
      C                    G                          D
Just sit on down and I'll give you the scoop (what's that?)
                 D
It's called the Loop de Loop
           G
You gotta take a lace in each hand
        C               G
You go over and under again
            C                 G
You make a Loop de Loop and pull
           D                G
And your shoes are lookin' cool
        G        G
You go over and back

 G        G
Left to right
 D        D
Loop dee Loop
         G         G
And you pull 'em tight
 G          G
Like bunny ears
       G        G
Or a Christmas bow
 D       D
Lace 'em up
             G      G
And you're ready to go
            C                 G
You make a Loop de Loop and pull
           D                G
And your shoes are lookin' cool

(Solo)

e------3-3-5-6-7~~~----7-7-5-3-5-6-7-7s11-7~~~-|
B---3-5----------------------------------------|
G----------------------------------------------|
D----------------------------------------------|
A----------------------------------------------|
E----------------------------------------------|
           C                 G
You make a Loop de Loop and pull
           D                G     C D6~
And your shoes are lookin' cool
            
Submit corrections

comments powered by Disqus
↑ Back to top | Ween Chords for Loop De Loop. Lyrics for acoustic guitar and electric guitar. 1 Tablatures and chords are parodies/interpretations of the original songs. You may use it for private study, scholarship, research or language learning purposes only