>
 >
Light Me Up

Light Me Up Guitar Tabs

Ween - Light Me Up chords, tabs, tablatures, lyrics

Guitar lessons | Add/correct | Request | Top 50 tabs Artists:  A B C D E F G H I J K L M N O P Q R S T U V W X Y Z 0-9

Light Me Up Guitar Tabs – Ween

CD, Sheet music, Poster

Do you like Light Me Up? Share with your friends now
Tabs


Tuning: standard

Guitar 1
e|------------------------------|------------------------------|
B|------------------------------|----------12------------------|
G|-\12-12-11-12-11-9---9-11-9---|-\12-11-12--12-11-9--9-11-9---|
D|------------------12-------12-|-------------------12------12-|
A|------------------------------|------------------------------|
E|------------------------------|------------------------------|

e|-------------------------|------------------------|
B|-------------------------|------------------------|
G|------9h11p9-7-\16-16-16-|-11h12p11-9-17-17-17-17-|
D|-12-12-------------------|------------------------|
A|-------------------------|------------------------|
E|-------------------------|------------------------|


e|---------------------|--------------|
B|---------------------|-12-16-16-17/-|
G|-8-9-11-11h12p11-9-8-|--------------|
D|---------------------|--------------|
A|---------------------|--------------|
E|---------------------|--------------|


Verse  Em D Em D B A E B )x2

Chorus Em D Em D B C G B )x2

 Chorus Lead Guitar 1 licks
e|--------------|--------------|---------|
B|---5-8-7------|---5-8-7------|---------|
G|-\7-----7-4-7-|-\7-----7-4-7-|-7-5-----|
D|--------------|--------------|-----5-9-|
A|--------------|--------------|---------|
E|--------------|--------------|---------|

e|--------------|--------------|-------|
B|---5-8-7------|---5-8-7------|-------|
G|-\7-----7-4-7-|-\7-----7-4-7-|-7-5---|
D|--------------|--------------|-----5-|
A|--------------|--------------|-------|
E|--------------|--------------|-------|

repete verse

2nd verse lick (just after "play with fire and not get burnt")

e|--------------|
B|---------5-3--|
G|-4-4-4-4-----4|
D|--------------|
A|--------------|
E|--------------|

repete chorus

the solo has two guitars playing at the same time and two parts.

Part 1

Guitar 2
e|------|----------------|-------------|-------|-----------|
B|------|----------------|-------------|-------|-----------|
G|-3b-3b|-2-0-------3b-3b|-2-0---0-2-\7|-2-0-\4|-----------|
D|------|-----2-0-2------|-----2-------|-------|-2-0-2---0-|
A|------|----------------|-------------|-------|-----------|
E|------|----------------|-------------|-------|-----------|

Guitar 1 (you'll hear when they need to come in with the track)
e|---------|---------|--------|---------|
B|-10b(12)-|-10b(12)-|-14b(16)|-10b(12)-|
G|---------|---------|--------|---------|
D|---------|---------|--------|---------|
A|---------|---------|--------|---------|
E|---------|---------|--------|---------|

this part i'm not 100% on but it sounds near as dammit.
Part 2
Guitar 1
 Tremlo Picking
e|-7-7-7-7-7-10-7|-6-7-7-7-7-|10-7-10-7-10-7-10-7-10|
B|---------------|-----------|----------------------|
G|---------------|-----------|----------------------|
D|---------------|-----------|----------------------|
A|---------------|-----------|----------------------|
E|---------------|-----------|----------------------|
                              normal picking
e|-12-12-12-15-12|-10-8-7-7-7|--------------|----------------------------|
B|---------------|-----------|-10b-8-10-8--8|-10b-8-10-8-5-7b-7b-7b-5-3-5|
G|---------------|-----------|------------7-|----------------------------|
D|---------------|-----------|--------------|----------------------------|
A|---------------|-----------|--------------|----------------------------|
E|---------------|-----------|--------------|----------------------------|

the last note in the solo is the first note in the verse riff, which follows the cord patten.

guitar 1
e|--|--|--|--|--|--|--|--|
B|-5|-3|-5|-3|--|--|--|--|
G|--|--|--|--|-4|-2|--|-4|
D|--|--|--|--|--|--|-2|--| X2
A|--|--|--|--|--|--|--|--|
E|--|--|--|--|--|--|--|--|

 guitar 2 lick(just after "the best designer shit you've ever seen")
e|-7-10--5-5-2-7|
B|-x-x---x-x-x-x|
G|-4-7---2-2-0-4| guitar 2 now follows the same riff as guitar 1
D|--------------|
A|--------------|
E|--------------|

guitar 2 chorus lick (i ain't going down with out a fight)
e|--------------|
B|--------------|
G|-5-4-2---2-4--|
D|-------5-----5|
A|--------------|
E|--------------|

guitar 1 follows the same lick as before but with this at the end.
e|-8-7-5---5--------------------------------|
B|-------8---8-7----------------------------|
G|---------------9-7(first note of the lick)|
D|------------------------------------------| X2
A|------------------------------------------|
E|------------------------------------------|

last time
e|-8-8-7-5-------|
B|---------8-7--5|
G|---------------|
D|---------------|
A|---------------|
E|---------------|

i'm 95% shure that its correct but if u have any corrections please get it touch. have fun amegos.





Comments


Popular Ween tabs & chords
Falling Out 1 Chords
Friends Chords
Long Beach Island Chords
Your Party 1 Chords
A Tear For Eddie Tabs
Fiesta Tabs
Lmlyp Intro Tabs
Seconds Tabs
Things You Already Know Tabs
Transdermal Celebration Tabs


Song lyrics



↑ Back to top | Tablatures and chords are parodies/interpretations of the original songs. You may use it for private study, scholarship, research or language learning purposes only
© 2014 AZChords.com Contact us | Privacy policy | DMCA | Add/correct tabs | Request tabs | Top 50 tabs