» » »

Ween, Flies On My Dick Tabs (ver.1)

Artists:  A B C D E F G H I J K L M N O P Q R S T U V W X Y Z # 

Flies On My Dick Tabs (ver.1)

Ween Tabs
 Rating:
4/5 (5 votes)
Flies On My Dick lessons Tabs too difficult? Try these video lessons and learn fast
1
                Ween - Flies On My Dick

It's actually two guitars attempting to play the same part, I think.
The notes in parenthesis are differentiations by the second guitar
(in the right audio channel).

(If you're playing by yourself, don't play the notes in parenthesis
at the same time as the normal note above it!)

KEY
x  = muted string
() = 2nd guitar playing different note than 1st guitar
b  = bend
/  = slide

this is the complete riff played at about 2:50
the one closer to the beginning of the song is a little different.

---------------------------------------------------|
-----------------------------------9-10-12--10-9---|
-----------------------------11---x----------------|
-----------------11----11-12-----x-----------------|
------9----9--12----12-----------------------------|
--10----10-----------------------------------------|


---------------------------------------------9---12-9-----------------|
---9-10-12-10-9-10-10---9-10-/14-12-10---12-(10)------12-10-12-10-----|
--x-------------------------------------(8)---------------(12)----11b-|
-x--------------------------------------------------------------------|
----------------------------------------------------------------------|
----------------------------------------------------------------------|
                                         ^ here the (8) is played by
                                           another guitar, for example.

------------------------------------|
------------------------------------|
----10b---------(7)-----------------|
-12-----12--9-12-9------------------|
--------------------12-9------------|
----------------------------/10-----|
            
Submit corrections

comments powered by Disqus
↑ Back to top | Ween Tabs for Flies On My Dick. Lyrics for acoustic guitar and electric guitar. 1 Tablatures and chords are parodies/interpretations of the original songs. You may use it for private study, scholarship, research or language learning purposes only