» » »

Ween, Even If You Don't Tabs (ver.1)

Artists:  A B C D E F G H I J K L M N O P Q R S T U V W X Y Z # 

Even If You Don't Tabs (ver.1)

Ween Tabs
Rating:
0/5 (0 votes)
Even If You Don't lessons Tabs too difficult? Try these video lessons and learn fast
                Really easy song, all power chords

Intro/ end of Chorus

e      -------------------------|
B      12---12--10--10-9---9--7-|
G      12---12--10--10-9---9--7-|
D`     12---12--10--10-9---9--7-|
A      10---10--8---8--7---7--5-|
E      -------------------------|

Verse

e      ------------------------|
B      7-x-6-x-7-x-------------|
G      7-x-6-x-7-x-6-6-6-6-----|
D      7-x-6-x-7-x-7-7-7-7-----|
A      5-x-4-x-5-x-7-7-7-7-----|
E      ------------5-5-5-5-----|

Pre-Chorus

e      -------------------------------------------|
B      -------------------------------------------|
G      5---5--5---7---7--7---9---9--9--9--9--9--9-|
D      6---6--6---8---8--8--10--10-10-10-10-10-10-|
A      6---6--6---8---8--8--10--10-10-10-10-10-10-|
E      4---4--4---6---6--6---8---8--8--8--8--8--8-|

Chorus

e      ----------------------------------------------------|
B      9--9--9--9-9-7--7--7--7-7-9--9--9--9-9-7--7--7--7-7-|
G      9--9--9--9-9-7--7--7--7-7-9--9--9--9-9-7--7--7--7-7-|
D      9--9--9--9-9-7--7--7--7-7-9--9--9--9-9-7--7--7--7-7-|
A      7--7--7--7-7-5--5--5--5-5-7--7--7--7-7-5--5--5--5-5-|
E      ----------------------------------------------------|
            

comments powered by Disqus
↑ Back to top | Ween Tabs for Even If You Don't. Lyrics for acoustic guitar and electric guitar. Tablatures and chords are parodies/interpretations of the original songs. You may use it for private study, scholarship, research or language learning purposes only