>
 >
Eulogy For David Anderson

Eulogy For David Anderson Chords

Ween - Eulogy For David Anderson chords, tabs, tablatures, lyrics

Guitar lessons | Add/correct | Request | Top 50 tabs Artists:  A B C D E F G H I J K L M N O P Q R S T U V W X Y Z 0-9

Eulogy For David Anderson Chords – Ween

CD, Sheet music, Poster

Do you like Eulogy For David Anderson? Share with your friends now
ChordsUkulele
-------------------------------------------------------------------------------
-------------------------------------------------------------------------------

Tuning: Standard

This is such a great song, I had to tab it out. It's off of the Caesar Demos, some 
unreleased tracks from the Quebec era.
This tab is probably not 100% perfect, but it's as close as my ears can get it 
(including a few of the lyrics).
Let me know of any corrections.

Enjoy.

Chords:
     Eb7  Ab   F    Bb   C#   Bb7  Eb7(2)
e|---6----4----1----6----4----6----11-------|
B|---8----4----1----6----6----6----11-------|
G|---6----5----2----7----6----7----12-------|
D|---8----6----3----8----6----6----11-------|
A|---6----6----3----8----4----8-------------|
E|--------4----1----6---------6-------------|

Intro/Verse:
     Eb7           Ab              F               Bb
e|---6--6-6--6-6---4--4-4--4-4-4---1--1-1--1-1-1---6--6-6--6-6-6---|
B|---8--8-6--6-8---4--4-4--4-4-4---1--1-1--1-1-1---6--6-6--6-6-6---|
G|---6--6-6--6-6---5--5-5--5-5-5---2--2-2--2-2-2---7--7-7--7-7-7---|
D|---8--8-8--8-8---6--6-6--6-6-6---3--3-3--3-3-3---8--8-8--8-8-8---|
A|---6--6-6--6-6---6--6-6--6-6-6---3--3-3--3-3-3---8--8-8--8-8-8---|
E|-----------------4--4-4--4-4-4---1--1-1--1-1-1---6--6-6--6-6-6---|

     Eb7           Ab              C#              Bb7
e|---6--6-6--6-6---4--4-4--4-4-4---4---4-4---4-4---6--6-6--6-6-6---|
B|---8--8-6--6-8---4--4-4--4-4-4---6---6-6---6-6---6--6-6--6-6-6---|
G|---6--6-6--6-6---5--5-5--5-5-5---6---6-6---6-6---7--7-7--7-7-7---|
D|---8--8-8--8-8---6--6-6--6-6-6---6---6-6---6-6---6--6-6--6-6-6---|
A|---6--6-6--6-6---6--6-6--6-6-6---4---4-3---3-0---8--8-8--8-8-8---|
E|-----------------4--4-4--4-4-4-------------------6--6-6--6-6-6---|


Eb7 Ab F Bb
Eb7 Ab C# Bb7

Eb7 Ab
Walk in, I'm away.
F Bb Eb7 Ab C# Bb7
I'm a long time gone and then the bomb.

Eb7 Ab
What's that? Who said?
F Bb Eb7 Ab C# Bb7
How many days? Just what the hell is going on?

Eb7 Ab
Oh, dude.
Eb7(2) Ab F F C# Bb7
Not you, my friend.

Eb7 Ab
It's been a while since you've been gone.
F Bb Eb7 Ab C# Bb7
Still don't understand why you left us and a son.

Eb7 Ab
I'm alright. I'm still drunk.
F Bb Eb7 Ab C# Bb7
Just so you know, I eat the Indian and watch Simpsons.

Eb7 Ab
Oh, dude.
Eb7(2) Ab F F C# Bb7
Not you, my friend.

Eb7 Ab
You'll be missed. Still on...
F Bb Eb7 Ab C# Bb7
the bus. Not ever the same since you've been gone.

Eb7 Ab
I miss you. You know that.
F Bb Eb7 Ab C# Bb7
So with my days, I just go on and on and on.

Eb7 Ab
Oh, dude.
Eb7(2) Ab F F C# Bb7
Not you, my friend.

C# Bb7
C# Bb7 Bb7 Bb7
Eb7



Thanks, Ween.
-Russell

************************************

| /   slide up
| \   slide down
| h   hammer-on
| p   pull-off
| ~   vibrato
| +   harmonic
| x   Mute note
| b   Bend
| pb  Pre-bend
| br  Bend release
| pbr Pre-bend release
| brb Bend release bend

************************************





Comments


Popular Ween tabs & chords
Don't Laugh (I Love You) Bass Tabs
Nichole Bass Tabs
She Wanted To Leave 1 Chords
Among His Tribe Tabs
It's Gonna Be A Long Night Tabs
Mutilated Lips Tabs
What Deaner Tabs
I Dont Wanna Leave You On The Farm Ukulele
Potluck Ukulele
Tried And True Ukulele


Song lyrics



↑ Back to top | Tablatures and chords are parodies/interpretations of the original songs. You may use it for private study, scholarship, research or language learning purposes only
© 2014 AZChords.com Contact us | Privacy policy | DMCA | Add/correct tabs | Request tabs | Top 50 tabs