>
 >
Chocolate Town

Chocolate Town Guitar Tabs

Ween - Chocolate Town chords, tabs, tablatures, lyrics

Guitar lessons | Add/correct | Request | Top 50 tabs Artists:  A B C D E F G H I J K L M N O P Q R S T U V W X Y Z 0-9

Chocolate Town Guitar Tabs – Ween

CD, Sheet music, Poster

Do you like Chocolate Town? Share with your friends now
Tabs
------------------------------------------------------------------------------
------------------------------------------------------------------------------

Tuning: Standard EADGBE

 A       Bdim       D  Bmin6         G     D/F#     Emin
|-----------2---2----------------0-----------------------|
|--2--3-----3---3------3---3-----0-----------------------|
|--2--2-----2---0------0---2-----0-----------------------|
|--2--3-----0----------0---0-----2-----------------------|
|--0--2---------2----------------2-----------------------|
|----------------------3---2-----0-----------------------|


Intro: Strum A and embellish by playing open B string and then
hammering back down on 2nd fret

VERSE1:
A                                     Bdim
Couldn't taste the taste that I was tastin'
A                                     Bdim
Couldn't hear the waste that I was makin'
D               Bmin6       A  G  D/F#
Tired of the life I was facin'

A  G  D/F#

VERSE 2:
A                         Bdim
Couldn't tell one from another
A                               Bdim
Couldnt hide a secret from my mother
D         Bmin6             A  G  D/F#
Any other mother wouldnt bother

A  G  D/F#


CHORUS:
Emin
Makin' time, breakin' ground
                              A   G D/F#
Sail brown bay to chocolate town

A   G D/F#


VERSE3:
A                                   Bdim
Got me on the porch I'm in the front row
A                                      Bdim
Says "shits for real" then like I dont know
D                 Bmin6       A   G  D/F#
Get your punk ass back to the dog show

A   G  D/F#

CHORUS:
Emin
Makin' time, breakin' ground
                              A   G D/F#
Sail brown bay to chocolate town

A   G D/F#

***SOLO****

|------------------------------------------------------------------------|
|------------------------------------------------------------------------|
|------------------------------------------------------------------------|
|-----------------------------------7------------------------------------|
|----5-5s9-9-9-9-7-5--5h7-7-7-7-7s9---9-7-5-5h7-7-7-7-5----------0h2-0~--|
|-5h7----------------------------------------------------5s9-5-0h2-------|

|---------------------------------9--7--5-|
|-----------------------------------------|
|---------------------------------9--7--6-|
|-----------------------------------------|
|----5-5s9-9-9-9-7-5-5h7-7-7-7-5----------|
|-5h7-------------------------------------|

|-5--5-5---------------------------------7-------|
|-/------7-5--------------------------8------8---|
|-/----------7-6--------------------9----------9-|
|-/---------------7------------------------------|
|-/------------------7\5--0----------------------|
|-----------------------------3--0---------------|

|-9p7------9p7-|------7-----|-----5-----7-----|-9\7---7\---5-|
|-----8--------|-8------8---|-----------------|--------------|
|-------9------|---9------9-|-5/6---6/7---7/9-|-----7----6---|
|--------------|------------|-----------------|--------------|
|--------------|------------|-----------------|--------------|
|--------------|------------|-----------------|--------------|

|-5--5-5---------|--------|-0-||
|--------7-5-----|--------|-2-||
|------------7-6-|--------|-2-||
|----------------|-7------|-2-||
|----------------|--------|-0-||
|----------------|-----3^-|---||

VERSE4:
A                              Bdim
A new breath I feel the grip releasin'
A                           Bdim
Scrapin' my guts off of the ceiling
D            Bmin6           A  G D/F#
I got that sunny bunny feelin'

A  G D/F#


CHORUS:
Emin
Makin' time, breakin' ground
                              A   G D/F#
Sail brown bay to chocolate town

A   G D/F#

Emin
Makin' time, breakin' ground
                              A   G D/F#
Greyhound bus to chocolate town

A   G D/F#

A   G D/F#

A





Comments


Popular Ween tabs & chords
I Miss You Chords
Buenas Tardes Amigo Tabs
Common Bitch Tabs
Mutilated Lips 1 Tabs
Piss Up A Rope Tabs
Springtheme Tabs
The Mollusk Tabs
Pork Roll Egg Cheese Ukulele
Roses Are Free Ukulele
Someday Ukulele


Song lyrics



↑ Back to top | Tablatures and chords are parodies/interpretations of the original songs. You may use it for private study, scholarship, research or language learning purposes only
© 2014 AZChords.com Contact us | Privacy policy | DMCA | Add/correct tabs | Request tabs | Top 50 tabs