» » »

We Are The Ocean, Nothing Good Has Happened Yet Bass tabs (ver.3)

Artists:  A B C D E F G H I J K L M N O P Q R S T U V W X Y Z # 

Nothing Good Has Happened Yet Bass tabs (ver.3)

We Are The Ocean Tabs
 Rating:
4/5 (4 votes)
Nothing Good Has Happened Yet lessons Tabs too difficult? Try these video lessons and learn fast
                
My first tab, so please be kind :D
If you have anything to add or to change co intact me please.

No bass until around 0:14

Chorus:

G|-----------------------------------------|
D|-----------------------------------------|
A|-2-2-222-4-4-4-444-5-5-555-7-7-7-777-----|
E|-----------------------------------------| (X4)

Short bass-break in the bridge

Verse:

G|------------------------------------------|
D|------------------------------------------|
A|-22-22------------------------------------|
E|---------55--55--33-33-33-33-33-33-33-33--| (X2)

Chorus:

G|-----------------------------------------|
D|-----------------------------------------|
A|-2-2-222-4-4-4-444-5-5-555-7-7-7-777-----|
E|-----------------------------------------| (X4)

Verse:

G|-----------------------------------------|
D|-----------------------------------------|
A|-22-22-----------------------------------|
E|---------55-55--33-33-33-33-33-33-33-33--| (X2)

Interlude:

G|--------------------|
D|--------------------|
A|-2~--------2~-------|
E|-----5~-3~----5~-3~-|

Chorus:

G|-----------------------------------------|
D|-----------------------------------------|
A|-2-2-222-4-4-4-444-5-5-555-7-7-7-777-----|
E|-----------------------------------------| (X4)

No bass until it starts again :D You´ll hear it

Bridge:

G|-------------------------------|
D|-------------------------------|
A|-2--2-5-2-0~---2--2-5-7-5~-----|
E|---2--------------3------------| (X2)

Chorus and Ending:

G|-----------------------------------------|
D|-----------------------------------------|
A|-2-2-222-4-4-4-444-5-5-555-7-7-7-777-----|
E|-----------------------------------------| (X4)
            
Submit corrections

comments powered by Disqus
↑ Back to top | We Are The Ocean Bass for Nothing Good Has Happened Yet. Lyrics for acoustic guitar and electric guitar. Tablatures and chords are parodies/interpretations of the original songs. You may use it for private study, scholarship, research or language learning purposes only