» » »

We Are The Ocean, Nothing Good Has Happened Yet Tabs (ver.1)

Artists:  A B C D E F G H I J K L M N O P Q R S T U V W X Y Z # 

Nothing Good Has Happened Yet Tabs (ver.1)

We Are The Ocean Tabs
 Rating:
4.6/5 (9 votes)
Nothing Good Has Happened Yet lessons Tabs too difficult? Try these video lessons and learn fast
1
                
Tuning:Drop d


i know this tab isnt perfect and theres no others up. i worked it out by ear a 
couple weeks ago but  was kidna secrative about tabs. but yeah its not perfect but 
it should be a start point.



e|----5------5------5~-------5---------(5~)-----|
B|--3--3-3-3--3-3-3--3-3~-3-3-3-3------(3~)-----|
G|-4-4--4-2-2--2-0-0--0--0-0---0-------(0~)-----| Intro Clean Part
D|----------------------------------------------|
A|----------------------------------------------|
E|----------------------------------------------|(Last Note)

e|-----2p0-5-553322------|
B|---33---3-3------------|
G|-44---------------(X7)-| Sexy Riff after it 
D|-----------------------|
A|-----------------------|
E|-----------------------|

e|----2~----2~---------------------------------------------------|
B|--3-----3------------------------------------------------------|
G|-4-4---2-2-----------------------------------------------------|X2
D|-----------------1212--1212--1212--1212--1212--1212--1212--1212|
A|-----------------1212--1212--1212--1212--1212--1212--1212--1212|
E|-----------------1212--1212--1212--1212--1212--1212--1212--1212|

e|--2--2--2-------|
B|--3--3--3-------|
G|--4--2--0-------|X2
D|----------------|
A|----------------|
E|----------------|

e|---------------------------------|\
B|---------------------------------| \
G|--4-----6-----7------------------|  \Whole thing 4 times Chorus
D|--x(x4)-x(x4)-x(x4)-2------------|  /
A|--2-----4-----5-----2(x4)--------| /
E|--------------------2------------|/

e|----2~----2~---------------------------------------------------|
B|--3-----3------------------------------------------------------|
G|-4-4---2-2-----------------------------------------------------|X2
D|-----------------1212--1212--1212--1212--1212--1212--1212--1212|
A|-----------------1212--1212--1212--1212--1212--1212--1212--1212|
E|-----------------1212--1212--1212--1212--1212--1212--1212--1212|


e|------------------------------------------|
B|----5~------------------------------------|
G|----5~-------0~---------------------------|Rhythm for break thing
D|---5---------6~---------------------------|(really sketchy)
A|--3--------4------------------------------|
E|----------5-------------------------------|

e|---------------------------------------------------------------------|
B|---------------------------------------------------------------------|
G|--6/74p2h4p2h4p2~---6/74p2h4p26/9---(x3)---6/74p2h4p2h4p2~~~---------|
D|---------------------------------------------------------------------|
A|---------------------------------------------------------------------|
E|---------------------------------------------------------------------|


e|-----2p0-5-553322-(0~)-|
B|---33---3-3------------|
G|-44---------------(X10)|  (end on )
D|-----------------------|
A|-----------------------|
E|-----------------------|

| /  slide up
| \  slide down
| h  hammer-on
| p  pull-off
| ~  vibrato
| +  harmonic
| x  Mute note
===============================================================================
            
Submit corrections

comments powered by Disqus
↑ Back to top | We Are The Ocean Tabs for Nothing Good Has Happened Yet. Lyrics for acoustic guitar and electric guitar. 1 Tablatures and chords are parodies/interpretations of the original songs. You may use it for private study, scholarship, research or language learning purposes only