>
 >
Nothing Good Has Happened Yet

Nothing Good Has Happened Yet Bass Tabs

We Are The Ocean - Nothing Good Has Happened Yet chords, tabs, tablatures, lyrics

Guitar lessons | Add/correct | Request | Top 50 tabs Artists:  A B C D E F G H I J K L M N O P Q R S T U V W X Y Z 0-9

Nothing Good Has Happened Yet Bass Tabs – We Are The Ocean

CD, Sheet music, Poster

Do you like Nothing Good Has Happened Yet? Share with your friends now
Bass TabsBass Tabs v2Bass Tabs v3ChordsChords v2TabsUkuleleUkulele v2
-------------------------------------------------------------------------------
-------------------------------------------------------------------------------


Tuning: Drop D

Guitar Intro

1st Chorus (0.14) - Listen to the song for the rhythm

G|------------------------------------------|
D|------------------------------------------|  X3
A|-222-2-24-4-444-555-5-5-------------------|
D|------------------------2-2-222-----------|

G|-------------------------------------------|
D|-------------------------------------------|    
A|-222-2-24-4-444-555-5-5--------------------|
D|------------------------2-2-222----2~------|

1st Verse (0.36)

G|---------------------------------------------------------|
D|---------------------------------------------------------|  X2
A|-22-22~-00-00~-------------------------------------------| 
D|---------------55-55--55-55--55-55--55-55----------------|


"....Let me in from the rain...." Drop Out For This Bit (0.55 - 1.04)

2nd Chorus (1.05)
G|------------------------------------------|
D|------------------------------------------|  X4
A|-222-2-24-4-444-555-5-5-------------------|
D|------------------------2-2-222-----------|


2st Verse (1.24)

G|---------------------------------------------------------|
D|---------------------------------------------------------|  X2
A|-22-22~-00-00~-------------------------------------------| 
D|---------------55-55--55-55--55-55--55-55----------------|

"....let me in from the rain...." 
G|--------------------|
D|--------------------|  X2
A|---2~--0~-----------|
D|-----------5~-------|


3rd Chorus (1.52)

G|------------------------------------------|
D|------------------------------------------|  X3
A|-222-2-24-4-444-555-5-5-------------------|
D|------------------------2-2-222-----------|

G|-------------------------------------------|
D|-------------------------------------------|    
A|-222-2-24-4-444-555-5-5--------------------|
D|------------------------2-2-222----2~------|


Interlude - Don't play till 2.24
G|---------------------------------|                                 
D|-------0------------------0-20---|  X3                              
A|-2-0-2---20---------2-0-2--------|                                   
D|---------------------------------|                                         

(2.52)
G|----------|
D|----------| Let it ring out till 2.56  
A|--2~------| 
D|----------|

Vocal Break

Final Chorus (3.07)

G|------------------------------------------|
D|------------------------------------------|  X3
A|-222-2-24-4-444-555-5-5-------------------|
D|------------------------2-2-222-----------|

G|-------------------------------------------|
D|-------------------------------------------|    
A|-222-2-24-4-444-555-5-5--------------------|
D|------------------------2-2-222----2~------|

Any Problems With This Tab Please Contact Me

| /  slide up
| \  slide down
| h  hammer-on
| p  pull-off
| ~  vibrato
| +  harmonic
| x  Mute note
===============================================================================





Comments


Popular We Are The Ocean tabs & chords
Runaway Bass Tabs
The Waiting Room Bass Tabs
Look Alive Chords
Lucky Ones Chords
Nothing Good Has Happened Yet 2 Chords
The Waiting Room 2 Chords
This Is Called My Home Intro Tabs
What It Feels Like Tabs
Nothing Good Has Happened Yet 2 Ukulele
Young Heart Ukulele


Song lyrics



↑ Back to top | Tablatures and chords are parodies/interpretations of the original songs. You may use it for private study, scholarship, research or language learning purposes only
© 2014 AZChords.com Contact us | Privacy policy | DMCA | Add/correct tabs | Request tabs | Top 50 tabs