» » »

Nothing Good Has Happened Yet Bass tabs (ver.2)

Artists:  A B C D E F G H I J K L M N O P Q R S T U V W X Y Z # 

Nothing Good Has Happened Yet Bass tabs (ver.2)

We Are The Ocean
Rating:
0/5 (0 votes)

Hard to play? Try these video lessons and learn fast.
                NO BASS IN INTRO.

G|---------------------------------|
D|---------------------------------|
A|-2-2-222-4-4-444-5-5-555---------|
E|-------------------------0-00-000| (X4)


G|--------------------------------------|
D|--------------------------------------|
A|-22-22--00-00-------------------------|
E|---------------33-33-33-33-33-33-33-33| (X2)


G|---------------------------------|
D|---------------------------------|
A|-2-2-222-4-4-444-5-5-555---------|
E|-------------------------0-00-000| (X4)

G|--------------------------------------|
D|--------------------------------------|
A|-22-22--00-00-------------------------|
E|---------------33-33-33-33-33-33-33-33| (X2) 

G|-------------------|
D|-------------------|
A|-2~-0~----2~-0~----|
E|-------3~-------3~-|

G|---------------------------------|
D|---------------------------------|
A|-2-2-222-4-4-444-5-5-555---------|
E|-------------------------0-00-000| (X4)

NO BASS FOR FOUR BARS.

G|-----------------------------|
D|-----------------------------|
A|-2---2-5-2-0~---2---2-5-7-5~-|
E|---2--------------3----------| (X2)

G|---------------------------------|
D|---------------------------------|
A|-2-2-222-4-4-444-5-5-555---------|
E|-------------------------0-00-000| (X4)
            
Hard to play? Try these video lessons and learn fast. | Correct




comments powered by Disqus
↑ Back to top | Tablatures and chords are parodies/interpretations of the original songs. You may use it for private study, scholarship, research or language learning purposes only