» » »

We Are The In Crowd, For The Win Tabs (ver.1)

Artists:  A B C D E F G H I J K L M N O P Q R S T U V W X Y Z # 

For The Win Tabs (ver.1)

We Are The In Crowd Tabs
 Rating:
4.6/5 (11 votes)
For The Win lessons Tabs too difficult? Try these video lessons and learn fast
                Band: We are the In Crowd
Tunning: Drop D


Intro (Clean)

e|---------------------------------------------------------------------------|
B|----------11-----------------11---------------8----------------16----------| play whole
G|---10--10---10--10---10---10---10--10---7---7---7--7----15---15---15---15--| thing 4 times.
D|-8---8--------8----8----8--------8----5---5------5---13---13--------13-----| 
A|---------------------------------------------------------------------------|
D|---------------------------------------------------------------------------|
 

Verse 1

e|---------------------------------------------------------------------------|
B|---------------------------------------------------------------------------| play this 
G|----------------------------888888888--------------------------------------| twice.
D|--88888888888888--55555555--888888888--------------------------------------|
A|--88888888888888--55555555--666666666--------------------------------------|
D|--88888888888888--55555555-------------------------------------------------|
PM  ..............  ........  .........


Chorus

e|---------------------------------------------------------------------------|
B|---------------------------------------------------------------------------|Play this
G|----------------------------------88888888---------------------------------|twice.
D|---88888888--33333333--555555555--88888888---------------------------------|
A|---88888888--33333333--555555555--66666666---------------------------------|
D|---88888888--33333333--555555555-------------------------------------------|


Verse 2

e|---------------------------------------------------------------------------|
B|---------------------------------------------------------------------------| play this 
G|----------------------------888888888--------------------------------------| twice.
D|--88888888888888--55555555--888888888--------------------------------------|
A|--88888888888888--55555555--666666666--------------------------------------|
D|--88888888888888--55555555-------------------------------------------------|
PM  ..............  ........  .........


e|---------------------------------------------------------------------------|
B|---------------------------------------------------------------------------|play this 
G|-------------------------------8-8-8888------------------------------------|twice.
D|--8-8-8-8-8-8-8888---5-5-5-5---8-8-8888------------------------------------|
A|--8-8-8-8-8-8-8888---5-5-5-5---6-6-6666------------------------------------|
D|--8-8-8-8-8-8-8888---5-5-5-5-----------------------------------------------|



Chorus

e|-----------------------------------------------|          |------|
B|-----------------------------------------------|Play this |------|End on
G|----------------------------------88888888-----|4 times.  |------|4th time 
D|---88888888--33333333--555555555--88888888-----|          |--8~--|on this.
A|---88888888--33333333--555555555--66666666-----|          |--8~--|
D|---88888888--33333333--555555555---------------|          |--8~--|



Bridge

e|----------------------------------------------|
B|----------------------------------------------|Play this  
G|---------------88-----------------------------|4 times.
D|---55--33--88--88--33--88---------------------|
A|---55--33--88--66--33--88---------------------|
D|---55--33--88------33--88---------------------|
                         ^^
                   on the 4th time 
                   let this ring out.


Final Chorus

e|-----------------------------------------------|          |------------|
B|-----------------------------------------------|Play this |------------|On the
G|----------------------------------88888888-----|5 times.  |--8-8-8-8~--|5th time 
D|---88888888--33333333--555555555--88888888-----|          |--8-8-8-8~--|play this
A|---88888888--33333333--555555555--66666666-----|          |--6-6-6-6~--|
D|---88888888--33333333--555555555---------------|          |------------|


Hope this works out for yall. 
heres my cover if you need help with the timming.
            
Submit corrections

comments powered by Disqus
↑ Back to top | We Are The In Crowd Tabs for For The Win. Lyrics for acoustic guitar and electric guitar. Tablatures and chords are parodies/interpretations of the original songs. You may use it for private study, scholarship, research or language learning purposes only