» » »

We Are The In Crowd, For The Win Bass tabs (ver.1)

Artists:  A B C D E F G H I J K L M N O P Q R S T U V W X Y Z # 

For The Win Bass tabs (ver.1)

We Are The In Crowd Tabs
 Rating:
4.2/5 (5 votes)
For The Win lessons Tabs too difficult? Try these video lessons and learn fast
                Bass Player: Mike Ferri
Tuning: Drop D



| /  slide up
| \  slide down
| h  hammer-on
| p  pull-off
| ~  vibrato
| +  harmonic
| x  Mute note
| <> Bend note


[Notes are always 1s and not 11s unless I have stated otherwise.]



Verse [Bass comes in at 0:30]

G|----------------------------------------------------|
D|----------------------------------------------------|
A|----------1111-1111-1111-1111-----------------------|
D|-0/12\0-----------------------0000-0000-1111-1111---|

G|-----------------------------------------|
D|-----------------------------------------|
A|-1111-1111-1111-1111---------------------|
D|---------------------0000-0000-1111-1----|

[Notes are grouped together so its easier to read, no other reason]


Chorus (0:45)

G|-----------------------------------------------------------------------------------|
D|-----------------------------------------------------------------------------------|
A|-1-1--111----------------------------------1-1--111--------------------------------|
D|----------3-333-3333--5-5-555--1-111-11111----------3-333-3333--5-5-5555--111--111-|

Verse (0:58)

G|----------------------------------------------------------------------------------|
D|----------------------------------------------------------------------------------|
A|-1111-1111-1111-1111---------------------1111-1111-1111-1111----------------------|
D|---------------------0000-0000-1111-1111---------------------0000-0000-1111-1111--|

                    h
G|-------------3-5-4^5-3-------------------------------------------------------|
D|-----------------------------------------------------------------------------|
A|-1-1-1-1-1-1----------------------------1-1-1-1-1-1--1-3-1-------------------|
D|------------------------0-0-0-0-1-1-1-1--------------------0-0-0-0-1-1-1-----|

Chorus (1:26)

G|-----------------------------------------------------------------------------------|
D|-----------------------------------------------------------------------------------|
A|-1-1--111----------------------------------1-1--111--------------------------------|
D|----------3-333-3333--5-5-555--1-111-11111----------3-333-3333--5-5-5555--111--111-|

G|-----------------------------------------------------------------------------------|
D|-----------------------------------------------------------------------------------|
A|-1111-1111-------------------------------1111-1111---------------------------------|
D|-----------3333-3333-5555-5555-1111-1111-----------3333-3333-5555-5555-1111-1111---|

Bridge (1:53)

G|-----------------------------------------------------------------------------------|
D|-----------------------------------------------------------------------------------|
A|-------------------------------------11----------------------------11--------------|
D|-5-------------------------55-----33----11-----33--33---55------33----11---33--33--|

G|---------------------------------------------------------|
D|---------------------------------------------------------|
A|-----------11----------------------------11--------------|
D|-55-----33----11-----33--33---55------33----11---33--33--|

Chorus (2:27)

G|--------------------------------------------------------------------|
D|--------------------------------------------------------------------|
A|-1------------------------1111-1111---------------------------------|
D|------------------------------------3333-3333-5555-5555-1111-1111---|

G|-----------------------------------------------------------------------------------|
D|-----------------------------------------------------------------------------------|
A|-1111-1111-------------------------------1111-1111---------------------------------|
D|-----------3333-3333-5555-5555-1111-1111-----------3333-3333-5555-5555-1111-1111---|

G|------------------------------------------|
D|------------------------------------------|
A|-1111-1111--------------------------------|
D|-----------3333-3333-5555-5555-1111-1111--|

Ending (3:02)

G|--------------------------------||
D|--------------------------------||
A|--------------------------------||
D|-5555-5555-3333-3333--1--1--1---||


===============================================================================
            
Submit corrections

comments powered by Disqus
↑ Back to top | We Are The In Crowd Bass for For The Win. Lyrics for acoustic guitar and electric guitar. Tablatures and chords are parodies/interpretations of the original songs. You may use it for private study, scholarship, research or language learning purposes only