» » »

We Are The In Crowd, For The Win Tabs (ver.2)

Artists:  A B C D E F G H I J K L M N O P Q R S T U V W X Y Z # 

For The Win Tabs (ver.2)

We Are The In Crowd Tabs
 Rating:
4/5 (4 votes)
For The Win lessons Tabs too difficult? Try these video lessons and learn fast
                We Are The In Crowd
For The Win

Louis Anacoura


Just going to do one guitar part for this song although there would be two. I tend
to switch between the two for the best parts anyway so might as well tab it that 
way. It's also probably in drop d but i can never be bothered tuning down. I think
these low barre chords still sound good though.

e|--------------------------------------------------------------------------------|
B|--------------------------------------------------------------------------------|
G|--------------------------------------------------------------------------------| 
D|--------------------------------------------------------------------------------|
A|--------------------------------------------------------------------------------|
E|--------------------------------------------------------------------------------|




Intro I
e|-----------------------------------------------------3--------------------------|
B|-------11---11-------------11---11---10----------6-------6---------3---4---3----|
G|----10-----------10---10----------------10-----3-----------3-----3-----------3--|  x2
D|--8-------8----8----8----8----8----8---------5-----5---5-------1-----1---1------|
A|--------------------------------------------------------------------------------|
E|--------------------------------------------------------------------------------|


Intro II
e|--------------------------------------------|------------|--11-10-----|
B|--------------------------------------------|------------|--------11--|
G|-------7---10-7--8-7-------------7---10-----|-----7------|------------|
D|--8-10---8-----------10-8---8-10---8----10--|--10---8-8--|------------|
A|--------------------------------------------|------------|------------|
E|--------------------------------------------|------------|------------|
                                                1st time     2nd time

Verse I
e|-------------------|
B|-------------------|
G|-------------------| 
D|--8-----7----8-----|
A|--8-x8--5-x4-6-x4--|
E|--6-----5----6-----|
    .     .    .


Verse II
e|----------------------------------------|
B|------6------------6------------4----4--|
G|--7-------x4---5-------x2---3--------3--| 
D|----8---8--------8---8--------5---5--5--|
A|----------------------------------------|
E|----------------------------------------|


Chorus
e|-------------------------------------|
B|-------------------------------------|
G|--------------8-----------------8-7--| 
D|--8---3---5---8-----8---3---5---8-8--|
A|--8---3---5---6-----8---3---5---6-5--|
E|--6---1---3---6-----6---1---3--------|


Verse III
e|----------------------------------------|
B|------6------------6------------4-------|
G|--7-------x4---5-------x2---3-------x2--| 
D|----8---8--------8---8--------5---5-----|
A|----------------------------------------|
E|----------------------------------------|


Verse II
e|----------------------------------------|
B|------6------------6------------4----4--|
G|--7-------x4---5-------x2---3--------3--| 
D|----8---8--------8---8--------5---5--5--|
A|----------------------------------------|
E|----------------------------------------|

Verse IV
e|----------------------------------------------------|
B|----------------------------------------------------|
G|-----5/7\5-3-------8--8\7/10-------8\7\5\3-------8--| 
D|--8--x x x-x---5---8--x x x-----8--x x x x---5---8--|
A|--8--3/5\3-1---5---6--6\5/8-----8--6\5\3\1---5---6--|
E|--6------------3---6------------6------------3---6--|
    .            .   .            .            .

Chorus
e|-------------------------------------|
B|-------------------------------------|
G|--------------8-----------------8-7--|  x2
D|--8---3---5---8-----8---3---5---8-8--|
A|--8---3---5---6-----8---3---5---6-5--|
E|--6---1---3---6-----6---1---3--------|


Bridge I
e|-----|------------------------------------------------------------|
B|-----|------------------------------------------------------------|
G|-----|--7-8-10-7-10------7------7--7-----8--7----------7-10----7--| 
D|--5--|--------------8-10----10--------8----------8---8------10----|
A|--5--|------------------------------------------------------------|
E|--3--|------------------------------------------------------------|


Bridge II
e|----------------------------------|
B|----------------------------------|
G|----------------------------------|  x4
D|--5-5---3-3--8-8--8-8---3-3--3-3--|
A|--5-5---3-3--8-8--6-6---3-3--3-3--|
E|--3-3---1-1--6-6--6-6---1-1--1-1--|

There is a background guitar here with a cooler riff. Can't work it out but
the song seems to be in A# so just mix up the notes on the major scale. I 
also know it's not the Intro I below but again any mix in them notes will do.


Intro I
e|-----------------------------------------------------3--------------------------|
B|-------11---11-------------11---11---10----------6-------6---------3---4---3----|
G|----10-----------10---10----------------10-----3-----------3-----3-----------3--| 
D|--8-------8----8----8----8----8----8---------5-----5---5-------1-----1---1------|
A|--------------------------------------------------------------------------------|
E|--------------------------------------------------------------------------------|


Chorus
e|-------------------------------------|
B|-------------------(*)---------------|
G|--------------8-----------------8-7--|  x1.5 (start at (*))
D|--8---3---5---8-----8---3---5---8-8--|
A|--8---3---5---6-----8---3---5---6-5--|
E|--6---1---3---6-----6---1---3--------|


Outro I
e|------------------------------|
B|------------------------------|
G|-----------8---------8--7-----| 
D|--8--3--5--8---5--3--8--8--8--|
A|--8--3--5--6---5--3--6--5--8--|
E|--6--1--3--6---3--1--6-----6--|
            
Submit corrections

comments powered by Disqus
↑ Back to top | We Are The In Crowd Tabs for For The Win. Lyrics for acoustic guitar and electric guitar. Tablatures and chords are parodies/interpretations of the original songs. You may use it for private study, scholarship, research or language learning purposes only