» » »

We Are The In Crowd, Never Be What You Want Tabs (ver.1)

Artists:  A B C D E F G H I J K L M N O P Q R S T U V W X Y Z # 

Never Be What You Want Tabs (ver.1)

We Are The In Crowd Tabs
Rating:
1/5 (1 vote)
Never Be What You Want lessons Tabs too difficult? Try these video lessons and learn fast
                This is my first tab ever. I'm not sure if it's 100% right.

Intro

E|---2---------2-----2---------2-| 
A|-2-4-4-6-4-2-4-4-2-4-4-6-2-4-4-|
D|-4-4-6-8-6-4-4-6-4-4-6-8-4-6-4-|
G|-4---6-8-6-4---6-4---6-8-4-6---|
B|-------------------------------|
e|-------------------------------|  Figure out strumming pattern. 


Verse 1

E|--22222222---------------------------22222222----------44444444------------------|
A|--44444444-44444444-2222222222222222-44444444-44444444-66666666-2222222222222222-|
D|--44444444-66666666-4444444444444444-44444444-66666666-66666666-4444444444444444-|
G|-----------66666666-4444444444444444----------66666666----------4444444444444444-|
B|---------------------------------------------------------------------------------|
e|---------------------------------------------------------------------------------|
    ******** ******** **************** ******** ******** ******** 

Chorus

E|-----------22222222----------------------------22222222----------|
A|--22222222-44444444-44444444-66666666-22222222-44444444-44444444-|
D|--44444444-44444444-66666666-88888888-44444444-44444444-66666666-|
G|--44444444----------66666666-88888888-44444444----------66666666-|
B|-----------------------------------------------------------------|
e|-----------------------------------------------------------------|

Verse 2

E|--22222222---------------------------22222222----------44444444------------------|
A|--44444444-44444444-2222222222222222-44444444-44444444-66666666-2222222222222222-|
D|--44444444-66666666-4444444444444444-44444444-66666666-66666666-4444444444444444-|
G|-----------66666666-4444444444444444----------66666666----------4444444444444444-|
B|---------------------------------------------------------------------------------|
e|---------------------------------------------------------------------------------|
    ******** ******** **************** ******** ******** ******** 


E|--4------------------------------------|
A|--6-1-2-4------------------------------|
D|--6-3-4-6------------------------------|
G|----3-4-6------------------------------|
B|---------------------------------------|
e|---------------------------------------|

These are the chords, you'll have to listen to know how many times you play them...

Bridge part 1 ''just try...''

Same as chorus

Bridge part 2 ''you can't...''

E|-------------------2222222222222222-------------------44444444444444----|
A|-66666666-44444444-4444444444444444-66666666-44444444-6666666666666644--|
D|-88888888-66666666-4444444444444444-88888888-66666666-6666666666666666--|
G|-88888888-66666666------------------88888888-66666666---------------66--|
B|------------------------------------------------------------------------|
e|------------------------------------------------------------------------|

E|-------------------2222222222222222-------------------44444444444444------------|
A|-66666666-44444444-4444444444444444-66666666-44444444-666666666666661122222222--|
D|-88888888-66666666-4444444444444444-88888888-66666666-666666666666663344444444--|
G|-88888888-66666666------------------88888888-66666666---------------3344444444--|
B|--------------------------------------------------------------------------------|
e|--------------------------------------------------------------------------------|

E|-------------|
A|-44444444----|
D|-66666666----|
G|-66666666----|
B|-------------|
e|-------------|



Chorus

E|-----22222222----------------------------22222222----------|
A|--22-44444444-44444444-66666666-22222222-44444444-44444444-|
D|--44-44444444-66666666-88888888-44444444-44444444-66666666-|
G|--44----------66666666-88888888-44444444----------66666666-|
B|-----------------------------------------------------------|
e|-----------------------------------------------------------|

Outro

E|---2---------2-----2---------2-| 
A|-2-4-4-6-4-2-4-4-2-4-4-6-2-4-4-|
D|-4-4-6-8-6-4-4-6-4-4-6-8-4-6-4-|
G|-4---6-8-6-4---6-4---6-8-4-6---|
B|-------------------------------|
e|-------------------------------|  Figure out strumming pattern. (again)
            

comments powered by Disqus
↑ Back to top | We Are The In Crowd Tabs for Never Be What You Want. Lyrics for acoustic guitar and electric guitar. Tablatures and chords are parodies/interpretations of the original songs. You may use it for private study, scholarship, research or language learning purposes only