» » »

We Are Scientists, Inaction Bass tabs (ver.3)

Artists:  A B C D E F G H I J K L M N O P Q R S T U V W X Y Z # 

Inaction Bass tabs (ver.3)

We Are Scientists Tabs
 Rating:
4/5 (5 votes)
Inaction lessons Tabs too difficult? Try these video lessons and learn fast
                Inaction – We are scientists
Bass tab

Intro:
G|----------------------------------------|
D|----------------------------------------|
A|----------------------------------345---|
E|--5555555555555-333-5555555555555-------| x4

1st Verse
G|----------------------------------------
D|----------------------------------------
A|----------------------------------------
E|--55555555-88888888-77777777-33333333---

G|------------------------------------------------|
D|------------------------------------------------|
A|------------------------------------------------|
E|--55555555-88888888-1010101010101010-33333333---| x2

Intro again (only once)

2nd verse:
G|------------------------------------------------------|
D|-----------------------------00000000-----------------|
A|------------------------------------------------------|
E|--55555555-33333333-00000000--------------------------| x2

Bridge:
G|--------------------------------------------------------------|
D|--------------------------------------------------------------|
A|--0--00--00--00--0--00--00--00--0--00--00--00--0--00--00--00--|
E|--------------------------------------------------------------|

[1st verse:]

Interlude scale:
G|--2---------------|    |------------|
D|-----5-2----------|    |------------|
A|---------6-5-3----|    |------------|
E|---------------5--| or |--55555555--| x4

[1st verse:]

[Interlude scale:]

End!? cheerio!
            
Submit corrections

comments powered by Disqus
↑ Back to top | We Are Scientists Bass for Inaction. Lyrics for acoustic guitar and electric guitar. Tablatures and chords are parodies/interpretations of the original songs. You may use it for private study, scholarship, research or language learning purposes only