» » »

We Are Scientists, Inaction Tabs (ver.3)

Artists:  A B C D E F G H I J K L M N O P Q R S T U V W X Y Z # 

Inaction Tabs (ver.3)

We Are Scientists Tabs
Rating:
3/5 (1 vote)
Inaction lessons Tabs too difficult? Try these video lessons and learn fast
                the other tab wasnt 100%, so i thought id give it a crack myself :)

Bass intro for guitar
|--------------------------------------------------------------------------|
|--------------------------------------------------------------------------|
|--------------------------------------------------------------------------|
|--------------------------------------------------------------------------|
|--------------------------------------------------------------------------|
|-5-5-5-5--5-5-5-5--5-5-5-5-5--5--3-3-3------------------------------------|

|--------------------------------------------------------------------------|
|--------------------------------------------------------------------------|
|--------------------------------------------------------------------------|
|--------------------------------------------------------------------------|
|--------------------------------------------------------------------------|
|-5-5-5-5--5-5-5-5--5-5-5-5-5--5--8-10-10----------------------------------|
(not positive on the no. of times to hit each not but its pretty easy to figure out how 
goes by listeningto the song)

intro
|-------------------------|
|----77---77---77---77----|
|--XX77-XX77-XX77-XX77----|
|--XX77-XX77-XX77-XX77----|
|--XX55-XX55-XX55-XX55----|
|-------------------------|

Verse

|-------------------------------------------------|
|-------------------------------------------------|
|-14-14-14-14-14-14-14-14-17-17-17-17-17-17-17-17-|
|--X--X--X--X--X--X--X--X--X--X--X--X--X--X--X--X-|
|-12-12-12-12-12-12-12-12-15-15-15-15-15-15-15-15-|
|-------------------------------------------------|

|-------------------------------------------------|
|-------------------------------------------------|
|-16-16-16-16-16-16-16-16-------------------------|
|--X--X--X--X--X--X--X--X-17-17-17-17-17-17-17-17-|
|-14-14-14-14-14-14-14-14--X--X--X--X--X--X--X--X-|
|-------------------------15-15-15-15-15-15-15-15-|

|-------------------------------------------------|
|-------------------------------------------------|
|-14-14-14-14-14-14-14-14-17-17-17-17-17-17-17-17-|
|--X--X--X--X--X--X--X--X--X--X--X--X--X--X--X--X-|
|-12-12-12-12-12-12-12-12-15-15-15-15-15-15-15-15-|
|-------------------------------------------------|

|-------------------------------------------------|
|-------------------------------------------------|
|-19-19-19-19-19-19-19-19-------------------------|
|--X--X--X--X--X--X--X--X-17-17-17-17-17-17-17-17-|
|-17-17-17-17-17-17-17-17--X--X--X--X--X--X--X--X-|
|-------------------------15-15-15-15-15-15-15-15-|


Short interlude thing

|-----------------------------------------------------|
|-----------------------------------------------------|
|-5-5-5-5-5-5-5-5-5-5-5-5--7-5-7^7-5-7-7^7-5---5-7-5--|
|-5-5-5-5-5-5-5-5-5-5-5-5--------------------7--------|
|-----------------------------------------------------|
|-----------------------------------------------------|

not sure what top call this bit, but youll know it when you hear it

|----------------------------------------------------------|
|----------------------------------------------------------|
|-14-14-14-14-14-14-14-14-12-12-12-12-12-12-12-12----------|
|--X--X--X--X--X--X--X--X--X--X--X--X--X--X--X--X----------|
|-12-12-12-12-12-12-12-12-10-10-10-10-10-10-10-10-|--------|
|-------------------------------------------------|     ---|
                                                         |   x2
|-------------------------------------------------|     ---|
|-------------------------------------------------|--------|
|--9--9--9--9--9--9--9--9--7--7--7--7--7--7--7--7----------|
|--X--X--X--X--X--X--X--X--X--X--X--X--X--X--X--X----------|
|--7--7--7--7--7--7--7--7--5--5--5--5--5--5--5--5----------|
|----------------------------------------------------------|

play verse

slightly longer interlude thing :?

|-------------------------------------------------|
|-------------------------------------------------|
|--14-12----------------14~---12------------------|
|--------14-12-------------------14-12------------|
|--------------14-14-12----------------14-14-12---|
|-------------------------------------------------|

and thats it i guess, listen to the song for the order, its fairly simple.
            

comments powered by Disqus
↑ Back to top | We Are Scientists Tabs for Inaction. Lyrics for acoustic guitar and electric guitar. Tablatures and chords are parodies/interpretations of the original songs. You may use it for private study, scholarship, research or language learning purposes only