» » »

We Are Scientists, Inaction Bass tabs (ver.2)

Artists:  A B C D E F G H I J K L M N O P Q R S T U V W X Y Z # 

Inaction Bass tabs (ver.2)

We Are Scientists Tabs
 Rating:
4/5 (8 votes)
Inaction lessons Tabs too difficult? Try these video lessons and learn fast
1
                We Are Scientists - Inaction

Intro/Verse 1-
G--------------------------------789--|
D--777777777777-555--77777777777------|x4
A-------------------------------------|
E-------------------------------------|

Chorus(x2)-
G------10----10-----10-----10-------12-------12-------12-------12-|
D-----------------------------------------------------------------|
A--8-8---8-8----8-8----8-8----10-10----10-10----10-10----10-10----|
E-----------------------------------------------------------------|

G------10----10-----10-----10-----7-----7-----7-----7--|
D------------------------------------------------------|
A--8-8---8-8----8-8----8-8----5-5---5-5---5-5---5-5----|
E------------------------------------------------------|

Verse 1 x1

Verse 2-
G------------------------------------------------------|
D--77777777-99999999-1010101010101010-1212121212121212-| x2
A------------------------------------------------------|
E------------------------------------------------------|

Bridge cont'
G-7-----7-----7-----7-----|
D-------------------------|
A---5-5---5-5---5-5---5-5-|x4
E-------------------------|

Chorus

Breakdown-
G---------------|
D-7-5-----------|
A-----7-6-5-----|x6
E-----------8-5-|

Chorus

Breakdown x8


Fin!
            
Submit corrections

comments powered by Disqus
↑ Back to top | We Are Scientists Bass for Inaction. Lyrics for acoustic guitar and electric guitar. 1 Tablatures and chords are parodies/interpretations of the original songs. You may use it for private study, scholarship, research or language learning purposes only