» » »

Inaction Tabs (ver.1)

Artists:  A B C D E F G H I J K L M N O P Q R S T U V W X Y Z # 

Inaction Tabs (ver.1)

We Are Scientists
Rating:
4/5 (7 votes)

Hard to play? Try these video lessons and learn fast.
                -------------------------------------------------------------------------------
                             Inaction- We are scientists
-------------------------------------------------------------------------------


Tuning:Standard of course
Ok you know me, you figure the timing you crazy cats.

Riff 1 
e|--------------------------------------------------------------------------|
B|--------------------------------------------------------------------------|
G|--------------------------------------------------------------------------|
D|--xx7---------------------------------------------------------------------|
A|--xx7---------------------------------------------------------------------|
E|--xx5---------------------------------------------------------------------|
Chorus
e|--------------------------------------------------------------------------|
B|--------------------------------------------------------------------------|
G|14---17---16---------14----17----19---------------------------------------|
D|---------------17----------------------17---------------------------------|
A|12x8-15x8-14x8-------12x8--15x8--17x8-------------------------------------|
E|---------------15x8--------------------15x8-------------------------------|
Break 
e|--------------------------------------------------------------------------|
B|-b55555555--555555555-----------------------------------------------------|
G|-b55555555-b777757775-----------------------------------------------------|
D|--------------------------------------------------------------------------|
A|--------------------------------------------------------------------------|
E|--------------------------------------------------------------------------|
Verse 2 
e|--------------------------------------------------------------------------|
B|--------------------------------------------------------------------------|
G|-14----12----9----7-------------------------------------------------------|
D|--------------------------------------------------------------------------|
A|-12x8--10xb--7x8--5x8-----------------------------------------------------|
E|--------------------------------------------------------------------------|
Riff 2 
e|--------------------------------------------------------------------------|
B|--------------------------------------------------------------------------|
G|---14-12----------------14-12---------------------------------------------|
D|---------14-12---------------14-12----------------------------------------|
A|---------------14-14-12-------------14-14-12------------------------------|
E|--------------------------------------------------------------------------|

Structure 
Riff1
Verse1 Bass only
Chorus
Break
Verse2
Riff1
Break
Chorus
Riff2
Chorus
Riff2
Break
            
Hard to play? Try these video lessons and learn fast. | Correct




comments powered by Disqus
↑ Back to top | Tablatures and chords are parodies/interpretations of the original songs. You may use it for private study, scholarship, research or language learning purposes only