» » »

Down Boys Tabs (ver.2)

Artists:  A B C D E F G H I J K L M N O P Q R S T U V W X Y Z # 

Down Boys Tabs (ver.2)

Warrant
Rating:
4/5 (1 vote)

Hard to play? Try these video lessons and learn fast.
                Listen to the CD for proper timing, strumming, and harmonics.
 

Tuning: 1/2 step down
E|---------------------------------|
B|---------------------------------|
G|--13-13-11-11-14-14--------------| :Fade in and reapeats
D|--------------------14-14--------|
A|--------------------------14-14--|
E|---------------------------------|
 
Then
E|---------------------------------|
B|---------------------------------|
G|--777-666--444-222--222-----2-4--| :Play just once
D|--777-666--444-222--222-----2-4--|
A|--555-444--222-000--000-----0-2--|
E|------------------------4b5------|
 
Play this before vocals begin
E|----------------------------------------------|
B|----------------------------------------------|
G|------6---7--2---------------6---7--2--6-7-8--|
D|------6---7--2---------------6---7--2--6-7-8--|
A|------4---5--0--2h4p2--------4---5--0--4-5-6--|
E|--0000-000-00--------4b5-0000-000-00----------|
 

E|----------------------------------------------|
B|----------------------------------------------|
G|------6---7--2---------------6---7--2----/14--|
D|------6---7--2---------------6---7--2----/14--|
A|------4---5--0--2h4p2--------4---5--0---------|
E|--0000-000-00--------4b5-0000-000-00----------|
 

Vocals start
E|----------------------------------------|
B|----------------------------------------|
G|-------------2-----------------4--2--6--| :Repeat 4x
D|-------------2-------------2--4--2--6---|
A|------4---5--0--2h4p2-----2--2--0--4----|
E|--0000-000-00--------4b5-0--------------|
 

Pre Chorus
    G    D    C    D
E|--3----2---------2--|
B|--3----3----5----3--|
G|--0----2----5----2--|
D|--0----0----5----0--|
A|--2---------3-------|
E|--3-----------------|
 
Chorus
E|-----------------------------------|----------------------------|
B|-----------------------------------|----------------------------|
G|-----4--2--2222-----4--2--6-7-8-9--|-----4--2--6----6-----4--2--|
D|--2--4--2--2222--2--4--2--6-7-8-9--|--2--4--2--6----6--4--4--2--|
A|--2--2--0--0000--2--2--0--4-5-6-7--|--2--2--0--4----4--4--2--0--|
E|--0--------------0-----------------|--0----------------2---
            
Hard to play? Try these video lessons and learn fast. | Correct




comments powered by Disqus
↑ Back to top | Tablatures and chords are parodies/interpretations of the original songs. You may use it for private study, scholarship, research or language learning purposes only