» » »

Warrant, Cherry Pie Bass tabs (ver.1)

Artists:  A B C D E F G H I J K L M N O P Q R S T U V W X Y Z # 

Cherry Pie Bass tabs (ver.1)

Warrant Tabs
 Rating:
4/5 (7 votes)
Cherry Pie lessons Tabs too difficult? Try these video lessons and learn fast
1
                Cherry Pie by Warrant
Standard Tuning E-A-D-G
One “-“ equals a 16th beat

Intro
|----------------|----------------|----------------|
|----------------|----------------|------------0---|
|-----------12\--|0---3---5-------|-------------420|
|----------------|----------------|1111--3333------|

Chorus 1
|----------------|----------------|----------------|------6---------|
|----------------|----------------|----------------|------7---------|
|----------------|--------3---5---|----------------|---5--0---------|
|0-0----33-3-----|5-5-------------|0-0-----3-3-----|3---------------|

|----------------|----------------|----------------|----------------|
|----------------|----------------|----------------|----------------|
|----------------|----------------|----------------|----------------|
|0---------------|------------5\--|0------00-------|0----------3--5-|

Verse 1
|----------------|----------------|----------------|----------------|
|----------------|----------------|----------------|----------------|
|----------------|--------5-------|----------------|--------5-------|
|0---------------|00----------5---|0-0-0-0-0-0-0-0-|0-0-0-0-----5---|

|----------------|----------------|----------------|----------------|
|----------------|----------------|----------------|----------------|
|----------------|----------------|----------------|--------5-------|
|0------00-------|0----------3--5-|00--------------|00----------5---|

|----------------|----------------|
|----------------|----------------|
|----------------|--------5-------|
|0-0-0-0-0-0-0-0-|0-0-0-0-----5---|

Pre Chorus 1
|----------------|----------------|
|----------------|----------------|
|----3---5-------|----------------|
|5---------------|1-1-1-1-3-3-3-3-|

Chorus 2
|----------------|----------------|----------------|------6---------|
|----------------|----------------|----------------|------7---------|
|----------------|--------3---5---|----------------|---5--0---------|
|0-0----33-3-----|5-5-------------|0-0-----3-3-----|3---------------|
	
|----------------|----------------|----------------|------6---------|
|----------------|--------5---7---|----------------|------7---------|
|----------------|--------3---5---|----------------|---5--0---------|
|0-0----33-3-----|5-5-------------|0-0-----3-3-----|3---------------|

Verse 2
|REST------------|REST------------|----------------|----------------|
|FOR-------------|FOR-------------|----------------|----------------|
|TWO-------------|TWO-------------|----------------|--------5-------|
|MEASURES--------|MEASURES--------|0-0-0-0-0-0-0-0-|0-0-0-0-----5---|
Pre Chorus 2
|----------------|----------------|
|----------------|----------------|
|----3---5-------|----------------|
|5---------------|1-1-1-1-3-3-3-3-|

Chorus 3
|----------------|----------------|----------------|------6---------|
|----------------|----------------|----------------|------7---------|
|----------------|--------3---5---|----------------|---5--0---------|
|0-0----33-3-----|5-5-------------|0-0-----3-3-----|3---------------|
                                                            Hold during 2/4
|----------------|----------------|----------------|------6~~~~~~~~~|~~~~~~~~|
|----------------|--------5---7---|----------------|------7~~~~~~~~~|~~~~~~~~|
|----------------|--------3---5---|----------------|---5--0~~~~~~~~~|~~~~~~~~|
|0-0----33-3-----|5-5-------------|0-0-----3-3-----|3---------------|--------|

Bridge/Guitar Solo (Back in 4/4)
|REST------------|----------------|----------------|----------------|
|FOR-------------|----------------|----------------|----------------|
|ONE-------------|02202-02--------|02202-020-------|02202-02--------|
|MEASURE---------|----------------|------------4---|--------0/------|
	
|----------------|----------------|----------------|----------------|
|----------------|----------------|----------------|----------------|
|02202-020-------|----------------|----------5---3-|----------------|
|------------4---|55----5-5-------|55----5-5-------|55----5-5-------|

|--------0-------|
|---------42-----|
|-----------3-5--|
|55--------------|

Verse 3
|----------------|----------------|----------------|----------------|
|----------------|----------------|----------------|----------------|
|----------------|--------5-------|----------------|------------8\--|
|00--------------|00----------5---|0-0-0-0-0-0-0-0-|0---------------|

Chorus 4/Outro
|----------------|----------------|----------------|----------------|
|----------------|----------------|----------------|----------------|
|-------33-3-----|5-5-------------|-------33-3-----|3-----5---------|
|5-5-------------|--------1---3---|5-5-------------|---3------------|

|----------------|----------------|----------------|----------------|
|----------------|----------------|----------------|-----------12---|
|-------33-3-----|5-5-------------|-------33-3-----|3-----5/12----12|
|5-5-------------|--------1---3---|5-5-------------|---3------------|

|----------------|REST------------|----------------|----------------|
|----------------|FOR-------------|---------5-—10--|----------------|
|3---------3-----|ONE-------------|----------------|-7--5---4-50----|
|---3-----3--3---|MEASURE---------|------333-------|0--0---0-0------|



Tab looks best in Courier New 9.5 Font.  This is my first tab, so go easy. :)
            
Submit corrections

comments powered by Disqus
↑ Back to top | Warrant Bass for Cherry Pie. Lyrics for acoustic guitar and electric guitar. 1 Tablatures and chords are parodies/interpretations of the original songs. You may use it for private study, scholarship, research or language learning purposes only