» » »

Warrant, Down Boys Bass tabs (ver.1)

Artists:  A B C D E F G H I J K L M N O P Q R S T U V W X Y Z # 

Down Boys Bass tabs (ver.1)

Warrant Tabs
 Rating:
4.2/5 (5 votes)
Down Boys lessons Tabs too difficult? Try these video lessons and learn fast
                G||----------------------|----------------------|----------------------|
D||----------------------|----------------------|----------------------|
A||----------------------|----------------------|----------------------|
E||----------------------|----------------------|----------------------|


                                                                     
----------------------|----------------------|----------------------|
----------------------|----------------------|----------------------|
----------------------|----------------------|----------------------|
----------------------|----------------------|----------------------|


                                                                     
----------------------|------------------------|--------------------|
----------------------|------------------------|--------------------|
----------------------|--------------------5-5-|--5--4-4-4----------|
----------------------|------------------------|----------------7-7-|


                                                                             
--------------------|----------------------------|--------------------------|
--------------------|----------------------------|--------------------------|
--------------------|----------------------------|--------------4-----------|
--7--5-5-5------5-5-|--5--4-4-4--5-5-5--7-7-7/---|--0--0--0--0-----0--0--0--|


                                                                                
--------------------------|--------------------------|-------------------------|
--------------------------|--------------------------|-------------------------|
--5-------------2h4-2-----|--------------4-----------|--5-------------4--5--6--|
-----0--5--5-----------3--|--0--0--0--0-----0--0--0--|-----0--5--5-------------|


                                                      
--------------------------|--------------------------|
--------------------------|--------------------------|
--------------4-----------|--5-------------2h4-2-----|
--0--0--0--0-----0--0--0--|-----0--5--5-----------3--|


                                                                 
--------------------------|--------------|----------------7--9--|
--------------------------|--------------|------------7h9-------|
--------------4-----------|--5-----------|----------------------|
--0--0--0--0-----0--0--0--|-----0--0--5--|----------------------|


                                                                           
------7---------------|-------------------------|-------------------------|
-----------9--7--5/---|-------------------------|-------------------------|
----------------------|--------------4----------|--5------------2h4-2-----|
----------------------|--0--0--0--0-------0--0--|-------5--5-----------3--|


                                                                            
-------------------------|------------------6----|-------------------------|
-------------------------|-----------------------|-------------------------|
--------7----------7-----|-------7-------4-------|--------------4----------|
--0--0-----0----0-----0--|----0-----0------------|--0--0--0--0-------0--0--|


                                                                            
-------------------------|-------------------------|------------------6/---|
-------------------------|-------------------------|-----------------------|
--5------------2h4-2-----|--------7----------7-----|-------7-------4-------|
-------5--5-----------3--|--0--0-----0----0-----0--|----0-----0------------|


                                                                              
-------------------------|-------------------------|-------------------------|
-------------------------|-------------------------|-------------------------|
--------------4----------|--5------------2h4-2-----|--------7----------7-----|
--0--0--0--0-------0--0--|-------5--5-----------3--|--0--0-----0----0-----0--|


                                                                            
------------------6----|-------------------------|-------------------------|
-----------------------|-------------------------|-------------------------|
-------7-------4-------|--------------4----------|--5------------2h4-2-----|
----0-----0------------|--0--0--0--0-------0--0--|-------5--5-----------3--|


                                                                             
-------------------------|------------------6----|--------------------------|
-------------------------|-----------------------|--------------------------|
--------7----------7-----|-------7-------4-------|--------------------3--4--|
--0--0-----0----0-----0--|----0-----0------------|--3--3--3--3--3--3--------|


                                                                               
--------------------------|-------------------------|-------------------------|
--------------------------|-------------------------|-------------------------|
--5--5--5--5--5--5--5--0--|--3--3--3--3--3--3----0--|--5--5--5--5--5--5--5----|
--------------------------|-------------------------|-------------------------|


                                                                         
-----------------------|------------------------|-----------------------|
-----------------------|------------------------|-----------------------|
------------2----2--0--|--0----0--0----0--0--0--|------------2----2--0--|
--0----0---------------|------------------------|--0----0---------------|


                                                                            
-----------------------|-------------------------|-------------------------|
-----------------------|-------------------------|-------------------------|
--0------4----5--6--7--|--------------2----2--0--|--0--0--0--4----4--4--4--|
-----------------------|--0--0--0--0-------------|-------------------------|


                                                                              
--------------------------|-----------------------|--------------------------|
--------------------------|-----------------------|--------------------------|
--4--4--4-----------------|--2--2--0--0------x----|--------------4-----------|
-----------0--2--2--2--2--|-----------------------|--0--0--0--0-----0--0--0--|


                                                                                
--------------------------|--------------------------|-------------------------|
--------------------------|--------------------------|-------------------------|
--5-------------2h4-2-----|--------------4-----------|--5-------------4--5--6--|
-----0--5--5-----------3--|--0--0--0--0-----0--0--0--|-----0--5--5-------------|


                                                      
--------------------------|--------------------------|
--------------------------|--------------------------|
--------------4-----------|--5-------------2h4-2-----|
--0--0--0--0-----0--0--0--|-----0--5--5-----------3--|


                                                      
--------------------------|--------------------------|
--------------------------|--------------------------|
--------------4-----------|--5-------------2h4-2--0--|
--0--0--0--0-----0--0--0--|-----0--5--5--------------|


                                                                                
--------------------------|--------------------------|-------------------------|
--------------------------|--------------------------|-------------------------|
--------------------3--4--|--5--5--5--5--5--5--5--0--|--3--3--3--3--3--3----0--|
--3--3--3--3--3--3--------|--------------------------|-------------------------|


                                                                        
----------------------|-----------------------|------------------------|
----------------------|-----------------------|------------------------|
--5--5----------5--5--|------------2----2--0--|--0----0--0----0--0--0--|
----------------------|--0----0---------------|------------------------|


                                                                          
-----------------------|-----------------------|-------------------------|
-----------------------|-----------------------|-------------------------|
------------2----2--0--|--0------4----5--6--7--|--------------2----2--0--|
--0----0---------------|-----------------------|--0--0--0--0-------------|


                                                                              
-------------------------|--------------------------|------------------------|
-------------------------|--------------------------|------------------------|
--0--0--0--4----4--4--4--|--4--4--4-----------------|--2--2--0--0--------5-5-|
-------------------------|-----------0--2--2--2--2--|------------------------|


                                                                            
---------------------------|--------------------------|--------------------|
---------------------------|--------------------------|--------------------|
--5--4-4-4------2-2-2------|--------------------------|--------------------|
-----------------------5-5-|--5--5--5--5--5--5--5--5--|--5----0------------|


                                                      
--------------------------|--------------------------|
--------------------------|--------------------------|
--------------4-----------|--5-------------2h4-2-----|
--0--0--0--0-----0--0--0--|-----0--5--5-----------3--|


                                                                                
--------------------------|-------------------------|--------------------------|
--------------------------|-------------------------|--------------------------|
--------------4-----------|--5-------------4--5--6--|--------------4-----------|
--0--0--0--0-----0--0--0--|-----0--5--5-------------|--0--0--0--0-----0--0--0--|


                                                      
--------------------------|--------------------------|
--------------------------|--------------------------|
--5-------------2h4-2-----|--------------4-----------|
-----0--5--5-----------3--|--0--0--0--0-----0--0--0--|


                                                                               
--------------------------|-------------------------|-------------------------|
--------------------------|-------------------------|-------------------------|
--5--------4----5----6----|--------------4----------|--5------------2h4-2-----|
--------------------------|--0--0--0--0-------0--0--|-------5--5-----------3--|


                                                                            
-------------------------|------------------6----|-------------------------|
-------------------------|-----------------------|-------------------------|
--------7----------7-----|-------7-------4-------|--------------4----------|
--0--0-----0----0-----0--|----0-----0------------|--0--0--0--0-------0--0--|


                                                                            
-------------------------|-------------------------|------------------6/---|
-------------------------|-------------------------|-----------------------|
--5------------2h4-2-----|--------7----------7-----|-------7-------4-------|
-------5--5-----------3--|--0--0-----0----0-----0--|----0-----0------------|


                                                        
--------------------------|------------------5--7-5----|
--------------------------|--------4--5-6-7---------7--|
--------------------3--4--|--5--5----------------------|
--3--3--3--3--3--3--------|----------------------------|


                                                      
--------------------------|--------------------------|
--------------------------|--------------------------|
--3--3--3--3--3--3--3--3--|--5--------5--------5-----|
--------------------------|-----0--0-----0--0-----0--|


                                                                            
--------------------7/-9--|-----------------------|------------------------|
--------------------------|-----------------------|------------------------|
-----5--------5--5--------|------------2----2--0--|--0----0--0----0--0--0--|
--0-----0--0--------------|--0----0---------------|------------------------|


                                                                          
-----------------------|-----------------------|-------------------------|
-----------------------|-----------------------|-------------------------|
------------2----2--0--|--0------4----5--6--7--|--------------2----2--0--|
--0----0---------------|-----------------------|--0--0--0--0-------------|


                                                                             
-------------------------|--------------------------|-----------------------|
-------------------------|--------------------------|-----------------------|
--0--0--0--4----4--4--4--|--4--4--4-----------------|--2--2--0--0------x----|
-------------------------|-----------0--2--2--2--2--|-----------------------|


                                                      
--------------------------|--------------------------|
--------------------------|--------------------------|
--------------------------|--------------------------|
--0--0--0--0--0--0--0--0--|--0--0--0--0--0--0--0--0--|


                                                      
--------------------------|--------------------------|
--------------------------|--------------------------|
--------------------------|--------------------------|
--0--0--0--0--0--0--0--0--|--0--0--0--0--0--0--0--0--|


                                                      
--------------------------|--------------------------|
--------------------------|--------------------------|
--------------------------|--------------------------|
--0--0--0--0--0--0--0--0--|--0--0--0--0--0--0--0--0--|


                                                                 
--------------------------|--------------------------|----------|
--------------------------|--------------------------|----------|
--------------4-----------|--5--------4----5----6----|----------|
--0--0--0--0-----0--0--0--|--------------------------|----------|


                                                                     
----------------------|----------------------|----------------------|
----------------------|----------------------|----------------------|
----------------------|----------------------|----------------------|
----------------------|----------------------|----------------------|


                                                                     
----------------------|----------------------|----------------------|
----------------------|----------------------|----------------------|
----------------------|----------------------|----------------------|
----------------------|----------------------|----------------------|


                        
----------------------||
----------------------||
----------------------||
----------------------||
Please rate
            
Submit corrections

comments powered by Disqus
↑ Back to top | Warrant Bass for Down Boys. Lyrics for acoustic guitar and electric guitar. Tablatures and chords are parodies/interpretations of the original songs. You may use it for private study, scholarship, research or language learning purposes only