>
 >
Cherry Pie 1

Cherry Pie 1 Guitar Tabs

Warrant - Cherry Pie 1 chords, tabs, tablatures, lyrics

Guitar lessons | Add/correct | Request | Top 50 tabs Artists:  A B C D E F G H I J K L M N O P Q R S T U V W X Y Z 0-9

Cherry Pie 1 Guitar Tabs – Warrant

CD, Sheet music, Poster

Do you like Cherry Pie 1? Share with your friends now
Bass TabsBass Tabs v2Bass Tabs v3TabsTabs v2Tabs v3Tabs v4
Cherry Pie 3 by Warrant 
Tuning: Standard (EADGBE)

Tab Key
/ -slide up        \ -slide down        ~ -vibrato
h -hammeron        p -pulloff          ah -aritfical harmonic
f -full bend       q -quarter bend      r -release bend


intro

|-------------------------------------------------|
|-------------------------------------------------|
|-----------5--7--7-------------------------------|
|-------/7--5--7--7--3-3-3-3--5-5-5-5-------------|
|-------/7--3--5--5--3-3-3-3--5-5-5-5----5-4-2-0--|
|--15\--/5-----------1-1-1-1--3-3-3-3--0----------|

chorus

|--------------------------------|
|--------------------------------|
|-----------5--7-----------7-----|
|--2--3--7--5--7--2--5--5--7--7--|
|--2--3--7--3--5--2--5--5--5--7--|
|--0--3--5--------0--3--3-----5--|

Main Riff	
 part 1              part 2 
|---------------------|-----------------------|
|---------------------|-----------------------|
|---------------------|-----------------------|
|---------------------|-----------------------| 
|----7---5---4---5----|----7---5---4---5------| 
|--0---0---0---0---5--|--0---0---0---0---5-3--| 

 part 3              part 4
|---------------------|-------------------------|
|---------------------|-------------------------|
|---------------------|-------------------------|
|---------------------|-------------------------|
|----7---5---4---5----|----7---5---5---4--------|
|--0---0---0---0---5--|--0---0---0---0---5-3-5--|

Verse (correct timings not in, im just putting
in the chords, you figure out the rest)

|---------------------------------------|
|---------------------------------------|
|---------------------------------------|
|--2--2--5-7--2-----------------2--5-7--|
|--2--2--5-7--2----------7p5-7--2--5-7--|
|--0--0--3-5--0--7p5-7p5--------0--3-5--|

Main Riff part 3 & 4

Repeat Verse

Pre-Chorus
|-----------------|
|-----------------|
|-----5--7--------|
|--7--5--7--3--5--|
|--7--3--5--3--5--|
|--5--------1--3--|

Chorus 2x

Verse 3- skip first 2 E power chords

Pre-Cohrus

Chorus 2x

Hold A p.c. for the pies

Solo I (backed up w/ repeating A & B p.c.'s)
|--------------------------------------|
|-15/16-16-15/16-16-15/16-16-15/16-16--|
|-13/14-14-13/14-14-13/14-14-13/14-14--|
|--------------------------------------|
|--------------------------------------|
|--------------------------------------|
       ah ah ah ah ah ah ah ah 
|---------------------------------|
|------12-15-14-15-14-15-14-------|
|--14f----------------------------|
|---------------------------14f---|
|---------------------------------|
|---------------------------------|
				       ~~~
|----------------------------------------|
|----------------------------------------|
|--12f-r9--------9------9-9f-r9p7---9p7--|
|---------12-9-9---9-12-----------9------|
|----------------------------------------|
|----------------------------------------|

|----------------------------|
|----------------------------|
|-9f-r9p7---9-7--/14-14q\----|
|---------9------------------|
|----------------------------|
|----------------------------|

Solo II Fill
|-----------------------------------------|
|-----------------------------------------|
|-----------------------------------------|
|---7---5---4---5------7---5---4---5------|
|-0---0---0---0---5--0---0---0---0---5-3--|
|-----------------------------------------|

|-----------------------------------------|
|-----------------------------------------|
|-----------------------------------------|
|---7---5---4---5------7---5---5p4--------|
|-0---0---0---0---5--0---0---0-----5p3-5--|
|-----------------------------------------|

Solo II (Over Fill above)
       ~~~
|-15f-15---17-15----------15--21f-21--|
|----------------17-15-17-------------|
|-------------------------------------|
|-------------------------------------|
|-------------------------------------|
|-------------------------------------|

|--17-20-19-17-19-17---------------------|
|--------------------20-17-20p19p17------|
|----------------------------------------|
|----------------------------------------|
|----------------------------------------|
|----------------------------------------|

|-------------------------------|
|-20f-r20p17----17--------------|
|------------19----19-19f-r17\--|
|-------------------------------|
|-------------------------------|
|-------------------------------|
            ~~
|------5---5--------------------|
|----5---5----------------------|
|-7f-----------7f-r7p5---7---5--|
|----------------------7---7----|
|-------------------------------|
|-------------------------------|
					 ~~~
|-----------------5----8-11-12--12-/21f-20--|
|-------------4-5---10----------------------|
|-5---5-----5-------------------------------|
|---7---5-7---------------------------------|
|-------------------------------------------|
|-------------------------------------------|

Verse

Chorus II / Outro
|-----------------------|
|-----------------------|
|----5-7-------5-5------|
|--7-5-7-3-5-7-5-5-5-7--|
|--7-3-5-3-5-7-3-3-5-7--|
|--5-----1-3-5-----3-5--|

|-----------------------|
|-----------------------|
|----5-7-------5-5------|
|--7-5-7-3-5-7-5-5-5-7--|
|--7-3-5-3-5-7-3-3-5-7--|
|--5-----1-3-5-----3-5--|

|----------------------------------------|
|----------------------------------------|
|-5---7----------------------------------|
|-5-5-7-3-3-3-3-5-5-5-5-3-3-3-3-5-5-5-5--|
|-3-5-5-3-3-3-3-5-5-5-5-3-3-3-3-5-5-5-5--|
|---3---1-1-1-1-3-3-3-3-1-1-1-1-3-3-3-3--|

|----------------------|
|----------------------|
|----------------------|
|----------------------|
|-------7---5---4-5----|
|15\--0---0---0-----5--|

I've always thought this was a cool song.  It's very easy,
Hi, Ma.Villa Florida.. I miss u a lot.....Take care always...
Thanks & have fun.





Comments


Popular Warrant tabs & chords
Cherry Pie 2 Bass Tabs
Bitter Pill Chords
Heaven 2 Chords
I Cant Help Myself Chords
Heaven Tabs
I Saw Red Tabs
Blind Faith Ukulele
Drfsr Ukulele
I Saw Red Ukulele
Stronger Now Ukulele


Song lyrics



↑ Back to top | Tablatures and chords are parodies/interpretations of the original songs. You may use it for private study, scholarship, research or language learning purposes only
© 2014 AZChords.com Contact us | Privacy policy | DMCA | Add/correct tabs | Request tabs | Top 50 tabs