>
 >
Cherry Pie 2

Cherry Pie 2 Bass Tabs

Warrant - Cherry Pie 2 chords, tabs, tablatures, lyrics

Guitar lessons | Add/correct | Request | Top 50 tabs Artists:  A B C D E F G H I J K L M N O P Q R S T U V W X Y Z 0-9

Cherry Pie 2 Bass Tabs – Warrant

CD, Sheet music, Poster

Do you like Cherry Pie 2? Share with your friends now
Bass TabsBass Tabs v2Bass Tabs v3TabsTabs v2Tabs v3Tabs v4
Gtr I (E A D G) - 'Standard'


 Intro
 4/4
  Gtr I
  Q   Q     Q  Q  H      S S S S E S S S S E S S S S
|---------|------------|-----------------------------|
|---------|------------|---------------------0-------|
|----12--|-0--3--5----|-----------------------4-2-0-|
|---------|------------|-1-1-1-1---3-3-3-3-----------|


 Chorus
  E E E. S E E Q    E E Q  Q  Q    E E Q  E E Q
|-----------------|--------------|---------------|
|-----------------|--------------|---------------|
|-----------------|--------3--5--|---------------|
|-0-0----3-3-3----|-5-5----------|-0-0----3-3----|


  E. S +E  E +H       Q  Q  H      H    Q  Q
|----------6-(6)----|------------|-------------|
|----------7-(7)----|------------|-------------|
|----5-(5)-0-(0)----|------------|-------------|
|-3-----------------|-0----------|---------5--|


                                    Verse
  Q  E. S Q  Q    Q  Q  E. S +E  E   Q  Q  H
|---------------|------------------|------------|
|---------------|------------------|------------|
|---------------|------------------|------------|
|-0-----0-0-----|-0--------3-(3)-5-|-0----------|


  S S E Q  Q  Q    e e e e e e e e   e e e e Q  Q
|----------------|-----------------|----------------|
|----------------|-----------------|----------------|
|----------5-----|-----------------|---------5------|
|-0-0---------5--|-0-0-0-0-0-0-0-0-|-0-0-0-0----5---|


  Q  E. S Q  Q    Q  Q  E. S +E  E   S S E Q  H
|---------------|------------------|---------------|
|---------------|------------------|---------------|
|---------------|------------------|---------------|
|-0-----0-0-----|-0--------3-(3)-5-|-0-0-----------|


  S S E Q  Q  Q    e e e e e e e e   E E E E Q  Q
|----------------|-----------------|----------------|
|----------------|-----------------|----------------|
|----------5-----|-----------------|---------5------|
|-0-0---------5--|-0-0-0-0-0-0-0-0-|-0-0-0-0----5---|


                                Chorus
  Q  Q  H      E E E E E E E E   E E E. S E E Q
|------------|-----------------|-----------------|
|------------|-----------------|-----------------|
|----3--5----|-----------------|-----------------|
|-5----------|-1-1-1-1-3-3-3-3-|-0-0----3-3-3----|


  E E Q  Q  Q    E E Q  E E Q    E. S +E  E +H
|--------------|---------------|----------6-(6)----|
|--------------|---------------|----------7-(7)----|
|--------3--5--|---------------|----5-(5)-0-(0)----|
|-5-5----------|-0-0----3-3----|-3-----------------|


  E E E. S E E Q    E E Q  Q  Q    E E Q  E E Q
|-----------------|--------------|---------------|
|-----------------|--------5--7--|---------------|
|-----------------|--------3--5--|---------------|
|-0-0----3-3-3----|-5-5----------|-0-0----3-3----|


                     Verse
  E. S +E  E +H       W          W
|----------6-(6)----|----------|------|
|----------7-(7)----|----------|------|
|----5-(5)-0-(0)----|----------|------|
|-3-----------------|----------|------|


  e e e e e e e e   e e e e Q  Q     Q  Q  H
|-----------------|---------------||------------|
|-----------------|---------------||------------|
|-----------------|---------5-----||----3--5----|
|-0-0-0-0-0-0-0-0-|-0-0-0-0----5--||-5----------|


                   Chorus
  E E E E E E E E   E E E. S E E Q    E E Q  Q  Q
|-----------------|-----------------|--------------|
|-----------------|-----------------|--------------|
|-----------------|-----------------|--------3--5--|
|-1-1-1-1-3-3-3-3-|-0-0----3-3-3----|-5-5----------|


  E E Q  E E Q    E. S +E  E +H       E E E. S E E Q
|---------------|----------6-(6)----|-----------------|
|---------------|----------7-(7)----|-----------------|
|---------------|----5-(5)-0-(0)----|-----------------|
|-0-0----3-3----|-3-----------------|-0-0----3-3-3----|


  E E Q  Q  Q    E E Q  E E Q    E. S +E  E +H
|--------------|---------------|----------6-(6)----|
|--------5--7--|---------------|----------7-(7)----|
|--------3--5--|---------------|----5-(5)-0-(0)----|
|-5-5----------|-0-0----3-3----|-3-----------------|


          Guitar Solo
 2/4      4/4
  +H       W          S S S S E S S H
|-(6)----|----------|--------------------|
|-(7)----|----------|--------------------|
|-(0)----|----------|-0-2-2-0-2-0-2------|
|--------|----------|--------------------|


  S S S S E S S Q  Q    S S S S E S S H       S S S S E S S Q  Q
|---------------------|---------------------|---------------------|
|---------------------|---------------------|---------------------|
|-0-2-2-0-2-0-2-0-----|-0-2-2-0-2-0-2-------|---------------------|
|------------------4--|---------------0/----|-5-7-7-5-7-5-7-5--4--|


  S S E E E E E Q    S S E E E E E E E   S S E E E E E Q
|------------------|-------------------|------------------|
|------------------|-------------------|------------------|
|------------------|-------------5---3-|------------------|
|-5-5-----5-5------|-5-5-----5-5-------|-5-5-----5-5------|


                         Verse
  S S E Q  S S S S S E.   S S E Q  H      S S E Q  Q  Q
|----------0------------|---------------|-----------------|
|------------4-2--------|---------------|-----------------|
|----------------3---5--|---------------|----------5------|
|-5-5-------------------|-0-0-----------|-0-0---------5---|


                                  Chorus
  E E E E E E E E   Q  Q  Q  Q     E E E. S E E Q
|-----------------|--------------|-----------------|
|-----------------|--------------|-----------------|
|-----------------|--------------|--------3-3-3----|
|-0-0-0-0-0-0-0-0-|-0--------8--|-5-5-------------|


  E E Q  Q  Q    E E E. S E E Q    E. S +E  E +H
|--------------|-----------------|-------------------|
|--------------|-----------------|-------------------|
|-5-5----------|--------3-3-3----|-3--------5-(5)----|
|--------1--3--|-5-5-------------|----3-(3)----------|


  E E E. S E E Q    E E Q  Q  Q    E E E. S E E Q
|-----------------|--------------|-----------------|
|-----------------|--------------|-----------------|
|--------3-3-3----|-5-5----------|--------3-3-3----|
|-5-5-------------|--------1--3--|-5-5-------------|


  E. S +E  E  E  E  Q    E. S +E  E S S E E E   W
|----------------------|----------------------|------|
|---------------12-----|----------------------|------|
|-3--------5s12----12--|-3--------------3-----|------|
|----3-(3)-------------|----3-(3)-----3---3---|------|


  Q  E S S S S E  Q    S E S E. S S S S S Q
|--------------------|-----------------------*|
|------------5-------|-----------------------*|
|----------------10--|---7---5----4---5-0----*|
|------3-3-3---------|-0---0----0---0--------*|




--------------------------------------------------------------------------------


Duration Legend
---------------
W - whole; H - half; Q - quarter; E - 8th; S - 16th; T - 32nd; X - 64th; a - acciaccatura
+ - note tied to previous; . - note dotted; .. - note double dotted
Uncapitalized letters represent notes that are staccato (1/2 duration)
Irregular groupings are notated above the duration line
Duration letters will always appear directly above the note/fret number it represents the
duration for.  Duration letters with no fret number below them represent rests.  Multi-
bar rests are notated in the form Wxn, where n is the number of bars to rest for.  Low
melody durations appear below the staff

Tablature Legend
----------------
 h   - hammer-on
 p   - pull-off
 b   - bend
 pb  - pre-bend
 r   - bend release (if no number after the r, then release immediately)
 /  - slide into or out of (from/to "nowhere")
 s   - legato slide
 S   - shift slide
 - natural harmonic
[n]  - artificial harmonic
n(n) - tapped harmonic
 ~   - vibrato
 tr  - trill
 T   - tap
 TP  - trem. picking
 PM  - palm muting
n/  - tremolo bar dip; n = amount to dip
 n  - tremolo bar down
 n/  - tremolo bar up
/n  - tremolo bar inverted dip
 =   - hold bend; also acts as connecting device for hammers/pulls
 <> - volume swell (louder/softer)
 x   - on rhythm slash represents muted slash
 o   - on rhythm slash represents single note slash

Misc Legend
-----------
 |  - bar
||  - double bar
||o - repeat start
o|| - repeat end
*|  - double bar (ending)
 :  - bar (freetime)
 $  - Segno
 &  - Coda
Tempo markers -  = BPM(8/16=s8/s16), where s8 = swing 8ths, s16 = swing 16ths
Please rate





Comments


Popular Warrant tabs & chords
Big Talk Chords
Blind Faith Chords
D.R.F.S.R Chords
Blind Faith 1 Tabs
Cherry Pie 1 Tabs
Heaven 1 Tabs
Sure Feels Good To Me Tabs
You're The Only Hell Your Mama Ever Raised Tabs
Blind Faith Ukulele
Home Ukulele


Song lyrics



↑ Back to top | Tablatures and chords are parodies/interpretations of the original songs. You may use it for private study, scholarship, research or language learning purposes only
© 2014 AZChords.com Contact us | Privacy policy | DMCA | Add/correct tabs | Request tabs | Top 50 tabs