>
 >
Classical Thump

Classical Thump Bass Tabs

Victor Wooten - Classical Thump chords, tabs, tablatures, lyrics

Guitar lessons | Add/correct | Request | Top 50 tabs Artists:  A B C D E F G H I J K L M N O P Q R S T U V W X Y Z 0-9

Classical Thump Bass Tabs – Victor Wooten

CD, Sheet music, Poster

Do you like Classical Thump? Share with your friends now
Bass TabsBass Tabs v2
"Classical Thump"
                                by
                          Victor Wooten

Notes:  This tab is in no way every single note that Victor plays. This 
           tab is the notes that I hear.  Some parts may be incorrect, 
           and will be corrected as I find them.  This printing is 
           tabbed all the way through 1:46 on the song.  "h" means 
           hammer  "T" means tap 



G:-------4---4---------5-4-5-4-2-------5---5---5---------4---4----|
D:-----5---5---5-----5-----------5-4-0---4---4---4-----5---5---5--|
A:---5-----------5-3---------------------------------5-----------5|
E:-3-----------------------------------------------3--------------|
         h    h             h  h  h  h  h       h    h    h    h
G:-----h-04-h-04-h--------h-05-04-05-04-02-h--h-05-h-05-h-05-h-05-|
D:---h-05---05---05-h--h--05---------------05-04---04---04---04---|
A:-h-05-------------05-03-----------------------------------------|
E:-03-------------------------------------------------------------|

G:-------04---04----------44--44---------55-44-55-44-22-----------|
D:-----05---05--05------55--55--55-----55--------------55-44------|
A:---05-----------05--55----------55-33---------------------------|
E:-03---------------33--------------------------------------------|

G:--55--55--55-----------12-12--11-11--99--77--55--44--22--00-----|
D:00--44--44--44--------------------------------------------------|
A:----------------------------------------------------------------|
E:----------------------------------------------------------------|

G:-12-12-11-11-----12-12-11-11-9--11-11-99-7---99-77-5---77-55-4--|
D:------------12-9---------------7-----------5---------4--------2-|
A:----------------------------------------------------------------|
E:----------------------------------------------------------------|
                                  h   h      h   h      h  
G:-55-44-2--44-22-0--22-----------012-011-h--012-011-h--011h------|
D:---------------------5------------------012--------012---012----|
A:--------5--------3----5-----------------------------------------|
E:-----------------------0-3--------------------------------------|
   h         h  h     h      h        h  h     h 
G:-09-h---h--09-07-h--07-h---05-h--h--05-04-h--04-h---------------|
D:----010-07-------09----09-----07-04-------05----05--------------|
A:----------------------------------------------------------------|
E:----------------------------------------------------------------|



   h        h  
G:-02-h-----02-h------------12----14-12-11-----12-11-9-----11-9---|
D:----04-h-----05-h------------14---------h--12-------h--10-------|
A:-------05-------05-h--------------------012---------010---------|
E:-------------------03-------------------------------------------|

G:-7---9-7-5---7-5-4---5-4-2---4-2--------------------------------|
D:--h-9-----h-7-----h-5-----h-4----5------------------------------|
A:--09------07------05------04------5-h---------------------------|
E:------------------------------------03--------------------------|

G:-------19-21-----17-19-----16-17-----14-16----------------------|
D:-----------------------------------------------17-19-----16-17--|
A:--17-19-----15-17-----14-15-----12-14---------------------------|
E:------------------------------------------15-17-----14-15-------|

G:---------------------------21----19-21-19--17-19-17--16-17-16---|
D:------14-16-----------19-21-------------------------------------|
A:-----------------17-19---------19--------17--------15-----------|
E:-12-14-----10-12------------------------------------------------|

G:---14-16-14---19-21-19--17-19-17--16-17-16----14-16-14----------|
D:----------------------------------------------------------------|
A:-14---------19--------17--------15----------14------------------|
E:----------------------------------------------------------------|

G:---(11-12-14-11)---------------------------------repeat---------|
D:----------------14-14-15-15-16-16----------------three----------|
A:-14----------------------------------------------times----------|
E:----------------------------------------------------------------|

G:---(11-12-14-11)------------------------------------------------|
D:----------------14-14-15-15-16-16-------------------------------|
A:-14-------------12-12-13-13-14-14-------------------------------|
E:----------------------------------------------------------------|

G:---(11-12-14-11)------------------------------------------------|
D:----------------14-14-15-15-16-16-------------------------------|
A:-14-------------------------------------------------------------|
E:----------------------------------------------------------------|

G:---(11-12-14-11)------------------------------------------------|
D:----------------14-14-15-15-16-16-------------------------------|
A:-14-------------12-12-13-13-14-14-------------------------------|
E:----------------------------------------------------------------|

G:---(11-12-14-11)---------------------21-------------------------|
D:----------------14-14-15-15-16-16------21-----------------------|
A:-14-------------------------------------------------------------|
E:-----------------------------------------0----------------------|
          h  h  h              h  h                 h  h  h
G:------h-06-08-06h----------h-08-09h-------------h-06-08-06h-----|
D:-h--h-08--------08h--h--h--09-----09h---h--h--h-08--------08h---|
A:-06-09------------09-07-010---------010-07-06-09------------09--|
E:----------------------------------------------------------------|
       h            h              h  h  h              h  h
G:--h-(08-9-8)---h-(08-9-8)------h-06-08-06h----------h-08-09h----|
D:h-09--------9h-09--------9h--h-08--------08h--h--h--09-----09h--|
A:07-----------07-----------06-09------------09-07-010---------010|
E:----------------------------------------------------------------|
             h  h  h              h                h  h  h 
G:---------h-06-08-06h------h---h-89-(21)--------h-07-09-07h------|
D:-h--h--h-08--------08h--h-09h-89---------h--h--09--------09h----|
A:-07-06-09------------09-07--79-----------07-010------------010--|
E:----------------------------------------------------------------|
     h          h              h  h  h          h          h
G:-(77-9-7)---(77-9-7)-------h-07-09-07h------(77-9-7)---(77-9-7)-|
D:0--------9-0--------9h--h--09--------09h---0--------9-0--------9|
A:---------------------07-010------------010----------------------|
E:----------------------------------------------------------------|
    h   h     h   h   h     h   h   h     h   h   h      h
G:-009-007-h-007-009-007-h-007-007-005-h-005-007-005-h--005-------|
D:--------009-----------009-----------007-----------007-----------|
A:----------------------------------------------------------------|
E:----------------------------------------------------------------|
   h   h   h   h   h   h       T
G:-05h-05h-04h-04h-02h-02h-0--13/14-----T-------T-------T-------T---|
D:---07--07--05--05--04--04---12/13---T-14T---T-16T---T-14T---T-12--|
A:----------------------------------T-14--14T-16--16T-14--14T-12--12|
E:----------------------------------12------14------12------10------|





Comments


Popular Victor Wooten tabs & chords
Amazing Grace 1 Bass Tabs
Ari's Eyes Bass Tabs
Bro John Bass Tabs
Calassical Thump Bass Tabs
Classical Thump 1 Bass Tabs
Isnt She Lovely 2 Bass Tabs
Me And My Bass Guitar Bass Tabs
Overjoyed 1 Bass Tabs
Pretty Little Lady Bass Tabs
41 Tabs


Song lyrics



↑ Back to top | Tablatures and chords are parodies/interpretations of the original songs. You may use it for private study, scholarship, research or language learning purposes only
© 2014 AZChords.com Contact us | Privacy policy | DMCA | Add/correct tabs | Request tabs | Top 50 tabs