>
 >
Amazing Grace 1

Amazing Grace 1 Bass Tabs

Victor Wooten - Amazing Grace 1 chords, tabs, tablatures, lyrics

Guitar lessons | Add/correct | Request | Top 50 tabs Artists:  A B C D E F G H I J K L M N O P Q R S T U V W X Y Z 0-9

Amazing Grace 1 Bass Tabs – Victor Wooten

CD, Sheet music, Poster

Do you like Amazing Grace 1? Share with your friends now
Bass TabsBass Tabs v2
<#> Harmonic
#~~ Let ring for as long as indicated
(#) Ghost note (not played)
h hammer
p pull off
/ slide

G----<5>---|-<4>-------<5>-<4>---------<5>--------------------|
D-<5>------|-----<3.2>-----------<3.2>------------------<5>---|
A----------|-------------------------------3--<3>-<3.2>-------|
E--------3-|-------------------3----------------------------3-|

G-------<5>-<5>-|-<4>-------<5>-<4>-------------<3.2>----|
D---<5>---------|-----<3.2>---------------<3.2>----------|
A---------------|--------------------------------------5-|
E-3-------------|-------------------(3)/5----------------|

G-----------<5>------------<7>-|--<4>-<3.2>-<3.2>---<4>-------<5>-<4>-|
D--------<5>------------<7>----|------------------------<3.2>---------|
A--(5)/7--------(7)/8/9--------|--------------------------------------|
E------------------------------|------------------3-------------------|

G-------<5>-------------------------<5>-<5>-------<4>-------<5>-----|
D-<3.2>-------<3.2>-<5>---------<5>-------------------<3.2>-----<4>-|
A-----------3-------<5>---------------------6h7\6-------------------|
E-----------------------3/5h6h7-------------------------------------|

G---------------|
D---------<3.2>-|
A-(6)\5\4-------|
E---------------|

Part 2
======

G-<5><5>--<5>--<5>-x-x-x-x----------------x-x-x-x--|
D-<5><5>--<5>--<5>-x-x-x-x-<5><5>-<5>-<5>-x-x-x-x--|
A--3--3----3----3--x-x-x-x-<5><5>-<5>-<5>-x-x-x-x--|
E------------------x-x-x-x--3--3---3---3--x-x-x-x--|

G-<5><5>--<5>--<5>-x-x-x-x----------------4/-----|
D-<5><5>--<5>--<5>-x-x-x-x-<5><5>-<5>-<5>--------|
A--3--3----3----3--x-x-x-x-<5><5>-<5>-<5>-2/-----|
E------------------x-x-x-x--3--3---3---3---------|

G-<5><5>--<5>--<5>-x-x-x-x----------------x-x-x-x--|
D-<5><5>--<5>--<5>-x-x-x-x-<5><5>-<5>-<5>-x-x-x-x--|
A--3--3----3----3--x-x-x-x-<5><5>-<5>-<5>-x-x-x-x--|
E------------------x-x-x-x--3--3---3---3--x-x-x-x--|

G-<5><5>--<5>--<5>-x-x-x-x----------------<7>-----|
D-<5><5>--<5>--<5>-x-x-x-x-<5><5>-<5>-<5>-<7>-----|
A--3--3----3----3--x-x-x-x-<5><5>-<5>-<5>--5------|
E------------------x-x-x-x--3--3---3---3----------|

G--------<5>-------|-----<4>-------<5>-<4>---------|
D-----<5>----------|-<5>-----<3.2>-----------------|
A--<5>-------------|-----------------------33-33---|
E------------33-3--|-------------------------------|





Comments


Popular Victor Wooten tabs & chords
Ari's Eyes Bass Tabs
Bro John Bass Tabs
Classical Thump Bass Tabs
Isnt She Lovely Bass Tabs
Isnt She Lovely 2 Bass Tabs
Overjoyed Bass Tabs
Overjoyed 1 Bass Tabs
The Lesson Bass Tabs
Victa Bass Tabs
Yingin And Yangin Bass Tabs


Song lyrics



↑ Back to top | Tablatures and chords are parodies/interpretations of the original songs. You may use it for private study, scholarship, research or language learning purposes only
© 2014 AZChords.com Contact us | Privacy policy | DMCA | Add/correct tabs | Request tabs | Top 50 tabs