» » »

Versaemerge, Past Praying For Tabs (ver.1)

Artists:  A B C D E F G H I J K L M N O P Q R S T U V W X Y Z # 

Past Praying For Tabs (ver.1)

Versaemerge Tabs
 Rating:
4/5 (4 votes)
Past Praying For lessons Tabs too difficult? Try these video lessons and learn fast
1
                (Intro)
i done this tab is based on the chords by the versoin 2 person. so thanks. :) i changed bits 
and put it into power chords. :)
i think it is write. well when i play it, it sounds correct. >.<

marek.

Verse - not the excact rhythm but you will work it out easily.
e|--------------------------------------|-----------------------------------|
B|--------------------------------------|-----------------------------------|
G|-7x7x7---6x6x6------------------------|--7x7x7---6x6x6--------------------|
D|-7x7x7---6x6x6---5x5x5-----8x8x8---x3-|--7x7x7---6x6x6---7x7x7---after 3.-|
A|-5x5x5---4x4x4---5x5x5-----8x8x8------|--5x5x5---4x4x4---7x7x7------------|
D|-----------------5x5x5-----8x8x8------|------------------7x7x7------------|

Chorus
e|-----------------------------------------------------------------------|
B|-----------------------------------------------------------------------|
G|-77777777777777--------------------33333333333333----------------------|
D|-77777777777777---33333333333333---33333333333333---77777777777777--x2-|
A|-55555555555555---33333333333333---11111111111111---77777777777777-----|
D|------------------33333333333333--------------------77777777777777-----|
it could be 3-3-1 or just bar 8.


Repeat Verse
twice. then it just strums it.

Then Chorus

Bridge

e|-5-5-5-5-6-6-6-6-7-7-7-7-6-6-6-6-----|
B|-6-6-6-6-6-6-6-6-6-6-6-6-6-6-6-6-----|
G|-7-7-7-7-7-7-7-7-7-7-7-7-7-7-7-7-----|
D|-7-7-7-7-7-7-7-7-7-7-7-7-7-7-7-7--x4-|
A|-x-x-x-x-x-x-x-x-x-x-x-x-x-x-x-x-----|
D|-x-x-x-x-x-x-x-x-x-x-x-x-x-x-x-x-----|

Back Into Verse Kinda
e|------------------------------------|-------------------------------|
B|------------------------------------|-------------------------------|
G|-7x7x7---6x6x6----------------------|-7x7x7---6x6x6-----------------|
D|-7x7x7---6x6x6---5x5x5---8x8x8---x1-|-7x7x7---6x6x6---5x5x5---7~----|
A|-5x5x5---4x4x4---5x5x5---8x8x8------|-5x5x5---4x4x4---5x5x5---7~----|
D|-----------------5x5x5---8x8x8------|-----------------5x5x5---7~----|

Build Up Thing

e|------------------|
B|------------------|
G|------------------|
D|-77777777777777---|
A|-77777777777777---|
D|-77777777777777---|

Chorus

Outro.
e|-------------------------------|
B|-------------------------------|
G|-3333333333-55555555-7~--------|
D|-3333333333-55555555-7~--------|
A|-1111111111-33333333-5~--------|
D|-------------------------------|

Enjoy. :)
            
Submit corrections

comments powered by Disqus
↑ Back to top | Versaemerge Tabs for Past Praying For. Lyrics for acoustic guitar and electric guitar. 1 Tablatures and chords are parodies/interpretations of the original songs. You may use it for private study, scholarship, research or language learning purposes only