>
 >
Past Praying For

Past Praying For Guitar Tabs

Versaemerge - Past Praying For chords, tabs, tablatures, lyrics

Guitar lessons | Add/correct | Request | Top 50 tabs Artists:  A B C D E F G H I J K L M N O P Q R S T U V W X Y Z 0-9

Past Praying For Guitar Tabs – Versaemerge

CD, Sheet music, Poster

Do you like Past Praying For? Share with your friends now
Bass TabsBass Tabs v2ChordsChords v2TabsTabs v2Ukulele
VersaEmerge : Past Praying For


Location : Lucena City(SHC)Phils.




Tuning : Drop D

Intro/Verse1:
GtrI
|--------------------------------------|-----------------------------------------|
|--------------------------------------|-----------------------------------------|
|-7--7--7--5--5--5-----------5--5--5---|-7--7--7--5--5--5-----------5--5--5------|
|-77777777-33333333-5--5--5--33333333--|-77777777-33333333-5--5--5--33333333-----|
|-55555555-44444444-55555555-44444444--|-55555555-44444444-55555555-44444444-----|
|-------------------55555555-----------|-------------------55555555--------------|
   ** ** *  *  ** *  ** ** *  ** ** *     ** ** *  *  ** *  ** ** *  ** ** * 
2:

GtrI
|--------------------------------------|-----------------------------------|
|--------------------------------------|-----------------------------------|
|-7--7--7--5--5--5-----------5--5--5---|-7777---5~-------------------------|
|-77777777-33333333-5--5--5--33333333--|-7777---3~-1~--1~--1~--------------|
|-55555555-44444444-55555555-44444444--|-5555---4~-1~--1~--1~--------------|
|-------------------55555555-----------|-----------1~--1~--1~--------------|
   ** ** *  *  ** *  ** ** *  ** ** *   
  
GtrII
|--------------------------------------|-----------------------------------|
|--------------------------------------|-----------------------------------|
|-7--7--7--6--6--6-----------6--6--6---|-7777--10~----14~--15~--12~--------|
|-77777777-77777777-5--5--5--77777777--|-7777---x~----x----x----x----------|
|-55555555-44444444-55555555-44444444--|-5555---8~----12~--13~--10~--------|
|-------------------55555555-----------|-----------------------------------|
   ** ** *  *  ** *  ** ** *  ** ** *   
  

Chorus:
GtrI
|-------------------------------------------------------------------------|
|-------------------------------------------------------------------------|
|-------------------------------------------------------------------------|
|-0-0-0-0-0-0-0-0--3-3-3-3-3-3-3-3--8-8-8-8-8-8-8-8--7-7-7-7-7-7-7-7------|2x
|-0-0-0-0-0-0-0-0--3-3-3-3-3-3-3-3--8-8-8-8-8-8-8-8--7-7-7-7-7-7-7-7------|
|-0-0-0-0-0-0-0-0--3-3-3-3-3-3-3-3--8-8-8-8-8-8-8-8--7-7-7-7-7-7-7-7------|

GtrII
|-------------------------------------------------------------------------|
|-------------------------------------------------------------------------|
|-7-7-7-7-7-7-7-7--1010101010101010--1010101010101010-9-9-9-9-9-9-9-9-----|2x
|-------------------------------------------------------------------------|
|-5-5-5-5-5-5-5-5--8-8-8-8-8-8-8-8---8-8-8-8-8-8-8-8--7-7-7-7-7-7-7-7-----|
|-------------------------------------------------------------------------|


VerseII:
1.
GtrI
|--------------------------------------|-----------------------------------------|
|--------------------------------------|-----------------------------------------|
|-7--7--7--5--5--5-----------5--5--5---|-7--7--7--5--5--5-----------5~-----------|
|-77777777-33333333-5--5--5--33333333--|-77777777-33333333-5--5--5--3~-----------|
|-55555555-44444444-55555555-44444444--|-55555555-44444444-55555555-4~-----------|
|-------------------55555555-----------|-------------------55555555--------------|
   ** ** *  *  ** *  ** ** *  ** ** *     ** ** *  *  ** *  ** ** *  
|-5~-------------------5~--------------|-----------------------------------------|
|-6~---------------------6~------------|-----------------------------------------|
|-7~-----------------------7~----------|----------------------------6~-----------|
|-7~-----------------------------------|----------------------------7~-----------|
|-5~-----------------------------------|----------------------------4~-----------|
|--------------------------------------|-----------------------------------------|

2:
GtrI
|---------------------------------------------------------|
|------8888-99999999------10101010-999--------------------|
|-7777---------------------------------1010101010---------|
|--------------------7777---------------------------------|
|---------------------------------------------------------|
|---------------------------------------------------------|

|---------------------------------------------------------|
|------8888-99999999-131313131313131313131313131313131313-|
|-7777----------------------------------------------------|
|---------------------------------------------------------|
|---------------------------------------------------------|
|---------------------------------------------------------|
GtrII
|--------------------------------------|-----------------------------------------|
|--------------------------------------|-----------------------------------------|
|--------------------------------------|-----------------------------------------|
|-77777777-77777777----------77777777--|-77777777-77777777----------77777777-----|
|-55555555-44444444-55555555-44444444--|-55555555-44444444-55555555-44444444-----|
|-------------------55555555-----------|-------------------55555555--------------|
  ******** ******** ******** ********    ******** ******** ******** ******** 
 
3:

GtrI
|-13p0-12h13p0-12--8h10p0-8--3h5p0-3---|--13p0-12h13p0-12--8h10p0-8--3h5p0-3-----|
|--------------------------------------|-----------------------------------------|
|--------------------------------------|-----------------------------------------|
|--------------------------------------|-----------------------------------------|
|--------------------------------------|-----------------------------------------|
|--------------------------------------|-----------------------------------------|
GtrII
|--------------------------------------|-----------------------------------------|
|--------------------------------------|-----------------------------------------|
|-7~-----------------------------------|-6~--------------------------------------|
|-7~-----------------------------------|-7~--------------------------------------|
|-5~-----------------------------------|-4~--------------------------------------|
|--------------------------------------|-----------------------------------------|


Do Chorus:

Bridge-
GtrI
|--------------------------------------------------------------------|
|--------------------------------------------------------------------|
|-7--7--7--7--7-777---7--7--7--7-777---7--7--7--7-777---7--7--7--777-|
|-77777777777777777-7777777777777777-7777777777777777-77777777777777-|2x
|-55555555555555555-5555555555555555-5555555555555555-55555555555555-|
|--------------------------------------------------------------------|
   ** ** ** ** *    ** ** ** ** *    ** ** ** ** *    ** ** ** ** *  
GtrII(@1:50)
|------------------------------------------------------------------------|
|------------------------------------------------------------------------|
|------------------------------------------------------------------------|
|-0--0--0--0--0--0--0--0--0--0--0--0--0--0--0--0--0--0--0--0--0--0--0--0-|
|-0--0--0--0--0--0--0--0--0--0--0--0--0--0--0--0--0--0--0--0--0--0--0--0-|
|-0--0--0--0--0--0--0--0--0--0--0--0--0--0--0--0--0--0--0--0--0--0--0--0-|


Verse:
GtrI
|--------------------------------------|---------------------------------------------------|
|--------------------------------------|---------------------------------------------------|
|-7--7--7--5--5--5-----------5--5--5---|-7--7--7--5--5--5----------------------------------|
|-77777777-33333333-5--5--5--33333333--|-77777777-33333333-5--5--5--8~----7777777777777777-|
|-55555555-44444444-55555555-44444444--|-55555555-44444444-55555555-8~----7777777777777777-|
|-------------------55555555-----------|-------------------55555555-8~----7777777777777777-|
   ** ** *  *  ** *  ** ** *  ** ** *     ** ** *  *  ** *  ** ** *   
GtrII
|--------------------------------------|---------------------------------------------------|
|--------------------------------------|---------------------------------------------------|
|--------------------------------------|---------------------------10~-----222266669999999-|
|--------------------------------------|----------------------------x~-----xxxxxxxxxxxxxxx-|
|--------------------------------------|----------------------------8~-----000044447777777-|
|--------------------------------------|---------------------------------------------------|


Last Chorus:
Chorus:
GtrI
|-------------------------------------------------------------------------|
|-------------------------------------------------------------------------|
|-7-7-7-7-7-7-7-7---------------------------------------------------------|
|-7-7-7-7-7-7-7-7--3-3-3-3-3-3-3-3--8-8-8-8-8-8-8-8--7-7-7-7-7-7-7-7------|
|-5-5-5-5-5-5-5-5--3-3-3-3-3-3-3-3--8-8-8-8-8-8-8-8--7-7-7-7-7-7-7-7------|
|------------------3-3-3-3-3-3-3-3--8-8-8-8-8-8-8-8--7-7-7-7-7-7-7-7------|

GtrII
|-------------------------------------------------------------------------|
|-------------------------------------------------------------------------|
|------------------1010101010101010--1010101010101010-9-9-9-9-9-9-9-9-----|
|-------------------------------------------------------------------------|
|------------------8-8-8-8-8-8-8-8---8-8-8-8-8-8-8-8--7-7-7-7-7-7-7-7-----|
|-------------------------------------------------------------------------|

2.
GtrI
|-------------------------------------------------------------------------|
|-------------------------------------------------------------------------|
|-------------------------------------------------------------------------|
|-0-0-0-0-0-0-0-0--3-3-3-3-3-3-3-3--8-8-8-8-8-8-8-8--x-7777777---88-77----|
|-0-0-0-0-0-0-0-0--3-3-3-3-3-3-3-3--8-8-8-8-8-8-8-8--x-7777777---88-77----|
|-0-0-0-0-0-0-0-0--3-3-3-3-3-3-3-3--8-8-8-8-8-8-8-8--x-7777777---88-77----|

GtrII
|-------------------------------------------------------------------------|
|-------------------------------------------------------------------------|
|-7-7-7-7-7-7-7-7--1010101010101010--1010101010101010-x-9999999--1010-99--|
|-----------------------------------------------------x-------------------|
|-5-5-5-5-5-5-5-5--8-8-8-8-8-8-8-8---8-8-8-8-8-8-8-8--x-7777777--8-8-77---|
|-------------------------------------------------------------------------|

Outro
Bridge-
GtrI
|--------------------------------------------------------------------|
|--------------------------------------------------------------------|
|-77777777777777777-7777777777777777-7~------------------------------|
|-77777777777777777-7777777777777777-7~------------------------------|
|-55555555555555555-5555555555555555-5~------------------------------|
|--------------------------------------------------------------------|
GtrII(@1:50)
|---------------------------------------------------------------------|
|---------------------------------------------------------------------|
|---------------------------------------------------------------------|
|-0--0--0--0--0--0--0--0--0--0--0--0--0~------------------------------|
|-0--0--0--0--0--0--0--0--0--0--0--0--0~------------------------------|
|-0--0--0--0--0--0--0--0--0--0--0--0--0~------------------------------|





Comments


Popular Versaemerge tabs & chords
Past Praying For 1 Bass Tabs
American Boy Chords
Fixed At Zero (Acoustic) Chords
The Hider Chords
Fixed At Zero (Acoustic) Tabs
In Pursuing Design Intro Tabs
Lost Tree Tabs
Stranger Tabs
Consider The Sea Ukulele
The Hider Ukulele


Song lyrics



↑ Back to top | Tablatures and chords are parodies/interpretations of the original songs. You may use it for private study, scholarship, research or language learning purposes only
© 2014 AZChords.com Contact us | Privacy policy | DMCA | Add/correct tabs | Request tabs | Top 50 tabs