» » »

Past Praying For Tabs (ver.3)

Artists:  A B C D E F G H I J K L M N O P Q R S T U V W X Y Z # 

Past Praying For Tabs (ver.3)

Versaemerge
Rating:
5/5 (7 votes)

Hard to play? Try these video lessons and learn fast.
                this tab is based on the chords by the versoin 2 person. so thanks. :) i changed bits 
and put it into power chords. :)
i think it is write. well when i play it, it sounds correct. >.<

marek.

Verse - not the excact rhythm but you will work it out easily.
e|--------------------------------|--------------------------------|
B|--------------------------------|--------------------------------|
G|-7-77---6-66----------3-33------|--7-77---6-66-------------------|
D|-7-77---6-66---5-55---3-33---x3-|--7-77---6-66---7-77---after 3.-|
A|-5-55---4-44---5-55---1-11------|--5-55---4-44---7-77------------|
D|---------------5-55-------------|----------------7-77------------|

Chorus
e|-----------------------------------------------------------------------|
B|-----------------------------------------------------------------------|
G|-77777777777777--------------------33333333333333----------------------|
D|-77777777777777---33333333333333---33333333333333---77777777777777--x2-|
A|-55555555555555---33333333333333---11111111111111---77777777777777-----|
D|------------------33333333333333--------------------77777777777777-----|

Repeat Verse

Then Chorus

Bridge

e|-5-5-5-5-6-6-6-6-7-7-7-7-6-6-6-6-----|
B|-6-6-6-6-6-6-6-6-6-6-6-6-6-6-6-6-----|
G|-7-7-7-7-7-7-7-7-7-7-7-7-7-7-7-7-----|
D|-7-7-7-7-7-7-7-7-7-7-7-7-7-7-7-7--x4-|
A|-x-x-x-x-x-x-x-x-x-x-x-x-x-x-x-x-----|
D|-x-x-x-x-x-x-x-x-x-x-x-x-x-x-x-x-----|

Back Into Verse Kinda
e|-------------------------------|----------------------------|
B|-------------------------------|----------------------------|
G|-7-77---6-66----------3-33-----|-7-77---6-66----------------|
D|-7-77---6-66---5-55---3-33--x1-|-7-77---6-66---5-55---7~----|
A|-5-55---4-44---5-55---1-11-----|-5-55---4-44---5-55---7~----|
D|---------------5-55------------|---------------5-55---7~----|

Biuld Up Thing

e|------------------|
B|------------------|
G|------------------|
D|-77777777777777---|
A|-77777777777777---|
D|-77777777777777---|

Chorus

At The End Just Keep Playing A For a While Until It Ends.

Enjoy. :)
            
Hard to play? Try these video lessons and learn fast. | Correct




comments powered by Disqus
↑ Back to top | Tablatures and chords are parodies/interpretations of the original songs. You may use it for private study, scholarship, research or language learning purposes only