» » »

Versaemerge, Past Praying For Bass tabs (ver.2)

Artists:  A B C D E F G H I J K L M N O P Q R S T U V W X Y Z # 

Past Praying For Bass tabs (ver.2)

Versaemerge Tabs
 Rating:
4.2/5 (5 votes)
Past Praying For lessons Tabs too difficult? Try these video lessons and learn fast
                -------------------------------------------------------------------------------
			     Past Praying For - VersaEmerge
-------------------------------------------------------------------------------


The other tab for this song is pretty much perfect, but this song is
actually played on a 5-string, and I'm sure its 100% right.


UPDATE1: 10/28/11 - Chorus, Bridge



Tuning: Standard 5-string  (BEADG)


Bass doesn't come in until 0:17


Pre-Chorus x1

G|------------------------|
D|------------------------|
A|------------------------|
E|------------------------|
B|333--2~----4--4--4--4-~-|


Chorus x1

G|-------------------------------------------------------------------|
D|-------------------------------------------------------------------|
A|-------------------------------------------------------------------|
E|---------------------------------6666666666666666-5555555555555555-|
B|3333333333333333-6666666666666666----------------------------------|

G|--------------------------------------------------------------------|
D|--------------------------------------------------------------------|
A|--------------------------------------------------------------------|
E|---------------------------------6666666666666666-5555555555555555~-|
B|3333333333333333-6666666666666666-----------------------------------|


Verse x1

G|----------------------------------------------------------------------------|
D|----------------------------------------------------------------------------|
A|----------------------------------------------------------------------------|
E|-------------------------33333333--------------------------33333333---------|
B|2~------33333333-22222222--------22222222-33333333-22222222--------22222222-|


Pre-Chorus x1

G|---------------------------|
D|---------------------------|
A|---------------------------|
E|6~--66\18~-------55-5-5555-|
B|-------------2-22----------|

Chorus x1


Bridge x1  Don't come in until 1:50

G|---------------------------------------------------------------------|
D|---------------------------------------------------------------------|
A|---------------------------------------------------------------------|
E|---------------------------------------------------------------------|
B|3--3--3--3--3--3--3--3--3--3--3--3--3--3--3--3--3--3--3--3--3--3--3~-|


Pre-Chorus x1  Don't come in until 2:12

G|---------------------------------|
D|---------------------------------|
A|---------------------------------|
E|6~-----55555555/1717171717171717-|
B|---------------------------------|


Outro Chorus x1

G|--------------------------------------------------|
D|--------------------------------------------------|
A|--------------------------------------------------|
E|----------------6666666666666666-5555555555555555-|
B|6666666666666666----------------------------------|

G|--------------------------------------------------------------------|
D|--------------------------------------------------------------------|
A|--------------------------------------------------------------------|
E|----------------------------------6666666666666666-5-55-5-6-66-8-88-|
B|333333333333-4444-6666666666666666----------------------------------|

G|----------------------------------------|
D|----------------------------------------|
A|----------------------------------------|
E|----------------------------------------|
B|33333333333333333333333333333333-3~---/-|

PEACE


| /  slide up
| \  slide down
| h  hammer-on
| p  pull-off
| ~  vibrato
| +  harmonic
| x  Mute note
===============================================================================
            
Submit corrections

comments powered by Disqus
↑ Back to top | Versaemerge Bass for Past Praying For. Lyrics for acoustic guitar and electric guitar. Tablatures and chords are parodies/interpretations of the original songs. You may use it for private study, scholarship, research or language learning purposes only