» » »

Big Machine Tabs (ver.2)

Artists:  A B C D E F G H I J K L M N O P Q R S T U V W X Y Z # 

Big Machine Tabs (ver.2)

Velvet Revolver
Rating:
4/5 (8 votes)

Hard to play? Try these video lessons and learn fast.
                Velvet Revolver 
Big Machine


isn't much to tab until the pre chorus

All that first-class jet set brings me 
     down,                                         down,                   down
e-----2---------------------------------------------0------------------------l
B-----3----------------let ring---------------------2------------------------l
G-----2---------------------------------------------2------------------------l
D-----0---------------------------------------------2------------------------l
A---------------------------------------------------0------------------------l
E----------------------------------------------------------------------------l
      D maj                                       A maj


    All        brings me              down,  down,    down          ay  ay  ay  ay  ay  ay  ay
e---0-----------------------------------2---------------0-----------------------------------------------l
B---0-----------------------------------3---let ring----2-----------------------------------------------l
G---1-----------------------------------2---------------2-----------------------------------------------l
D---2-----------------------------------0---------------2---------5--5--5--5--5--5--5--5----------------l
A---2---------------------------------------------------0---------5--5--5--5--5--5--5--5----------------l
E---0-------------------------------------------------------------3--3--3--3--3--3--3--3----------------l
   Emaj                               Dmaj            Amaj        palm mute for two measures


Chorus - this isnt the exact pattern, you'll have to listen to the song to figure it out, im just being lazy
e-------------------------------------------------l
B-------------------------------------------------l
G----9-9---9-9-9---9-9-9----9-8-7--7--------------l
D----9-9---9-9-9---9-9-9----9-8-7--7---7-6-5-5----l
A----7-7---7-7-7---7-7-7----7-6-5--5---7-6-5-5----l
E--------------------------------------5-4-3-3----l


fills during the chorus: 
e-----------------------------------------------------------------------------------------l
B-----------------------------------------------------------------------------------------l
G-------------------------------------------------------12b14~~~~----12b14~~~~------------l
D---12b14~~~~----12b14~~~~----12b14~~~~----3b5r3~~~~--------------------------------------l
A-----------------------------------------------------------------------------------------l
E-----------------------------------------------------------------------------------------l




Bridge

Cmaj   Emaj    Dmaj   Emaj
Cmaj   Gmaj    Amaj
Cmaj   Emaj    Dmaj   Emaj
Cmaj   Gmaj    Amaj
fill just in the middle of the bridge and beore the solo:
e----------------------------------------------------l
B----------------------------------------------------l
G----------------------------------------------------l
D---12sd11-11sd9-9sd7-7sd5-5sd4-4sd2-2p0-------------l
A----------------------------------------4sd2--------l
E---------------------------------------------0------l


Solo n        /=repeat
e------------------------------------------------------------------------------------------l
B--12----/-/-/-/-/-/-/--12----------12----/-/-/-/-/-/-/--12------------12-15~~~~~~--------l
G--14b16-/-/-/-/-/-/-/--14----------14b16-/-/-/-/-/-/-/--14---------12---------------------l
D----------------------------12~~~----------------------------12~~~------------------------l
A------------------------------------------------------------------------------------------l
E------------------------------------------------------------------------------------------l

feel free to correct any mistakes
            
Hard to play? Try these video lessons and learn fast. | Correct




comments powered by Disqus
↑ Back to top | Tablatures and chords are parodies/interpretations of the original songs. You may use it for private study, scholarship, research or language learning purposes only