» » »

Big Machine Bass tabs (ver.1)

Artists:  A B C D E F G H I J K L M N O P Q R S T U V W X Y Z # 

Big Machine Bass tabs (ver.1)

Velvet Revolver
Rating:
4/5 (6 votes)

Hard to play? Try these video lessons and learn fast.
                Velvet Revolver – « Big Machine »

Accordage: E-A-D-G

Intro

|---------------|---------------|---------------|---------------|
|---------------|---------------|---------------|---------------|
|---------------|---------------|---------------|---------------|
|-0-0--0-0-0--0-|-0-0--0-0-0--0-|-0-0--0-0-0--0-|-0-0--0-0-0--0-|

|---------------|---------------|---------------|---------------|
|---------------|---------------|---------------|---------------|
|-7-6-5---------|---------------|---------------|---------------|
|-------------0-|-5-4-3------5--|-0-0--0-0-0--0-|-0-0--0-0-0--0-|

|---------------|---------------|---------------|---------------|
|---------------|---------------|---------------|---------------|
|-7-6-5---------|---------------|---------------|---------------|
|-------------0-|-5-4-3------5--|-0-0--0-0-0--0-|-0-0--0-0-0--0-|

#1

|---------------|---------------|---------------|---------------|
|---------------|---------------|---------------|---------------|
|---------------|---------------|---------------|---------------|
|-0-0--0-0-0--0-|-0-0--0-0-0--0-|-0-0--0-0-0--0-|-0-0--0-0-0--0-|

|---------------|---------------|-----------------|---------------|
|---------------|---------------|-----------------|---------------|
|---------------|---------------|-----------------|---------------|
|-0-0--0-0-0--0-|-0-0--0-0-0--0-|-0-0-3-0-5-0-3-0-|-0-0-3-5-0-3-0-|

|---------------|---------------|-----------------|---------------|
|---------------|---------------|-----------------|---------------|
|---------------|---------------|-----------------|---------------|
|-0-0--0-0-0--0-|-0-0--0-0-0--0-|-0-0-3-0-5-0-3-0-|-0-0-3-5-0-3-0-|

|-----------------|---------------|---------------|---------------|
|-----------------|---------------|---------------|---------------|
|-----------------|---------------|---------------|---------------|
|-3-3-3-3-3-3-3-3-|-3-3-3-3-3-3-3-|-0-0--0-0-0--0-|-0-0--0-0-0--0-|

|---------------|---------------|---------------|---------------|
|---------------|---------------|---------------|---------------|
|-7-6-5--/-12---|---------------|---------------|---------------|
|---------------|-5-4-3--/-12---|-0-0--0-0-0--0-|-0-0--0-0-0--0-|

|---------------|---------------|---------------|---------------|
|---------------|---------------|---------------|---------------|
|-7-6-5--/-12---|---------------|---------------|---------------|
|---------------|-5-4-3--/-12---|-0-0--0-0-0--0-|-0-0--0-0-0--0-|

|---------------|---------------|---------------|---------------|
|---------------|---------------|---------------|---------------|
|-7-6-5--/-12---|---------------|---------------|---------------|
|---------------|-5-4-3--/-12---|-0-0--0-0-0--0-|-0-0--0-0-0--0-|


#2

|---------------|---------------|---------------|---------------|
|---------------|---------------|---------------|---------------|
|---------------|---------------|---------------|---------------|
|-0-0--0-0-0--0-|-0-0--0-0-0--0-|-0-0--0-0-0--0-|-0-0--0-0-0--0-|

|---------------|---------------|-----------------|---------------|
|---------------|---------------|-----------------|---------------|
|---------------|---------------|-----------------|---------------|
|-0-0--0-0-0--0-|-0-0--0-0-0--0-|-0-0-3-0-5-0-3-0-|-0-0-3-5-0-3-0-|

|---------------|---------------|-----------------|---------------|
|---------------|---------------|-----------------|---------------|
|---------------|---------------|-----------------|---------------|
|-0-0--0-0-0--0-|-0-0--0-0-0--0-|-0-0-3-0-5-0-3-0-|-0-0-3-5-0-3-0-|

|-----------------|---------------|---------------|---------------|
|-----------------|---------------|---------------|---------------|
|-----------------|---------------|---------------|---------------|
|-3-3-3-3-3-3-3-3-|-3-3-3-3-3-3-3-|-0-0--0-0-0--0-|-0-0--0-0-0--0-|

|---------------|---------------|---------------|---------------|
|---------------|---------------|---------------|---------------|
|-7-6-5--/-12---|---------------|---------------|---------------|
|---------------|-5-4-3--/-12---|-0-0--0-0-0--0-|-0-0--0-0-0--0-|

|---------------|---------------|---------------|---------------|
|---------------|---------------|---------------|---------------|
|-7-6-5--/-12---|---------------|---------------|---------------|
|---------------|-5-4-3--/-12---|-0-0--0-0-0--0-|-0-0--0-0-0--0-|

|---------------|---------------|---------------|---------------|
|---------------|---------------|---------------|---------------|
|-7-6-5--/-12---|---------------|---------------|---------------|
|---------------|-5-4-3--/-12---|-0-0--0-0-0--0-|-0-0--0-0-0--0-|

#3

|-----------------|-----------------|-----------------|-----------------|
|-----------------|-----------------|-----------------|-----------------|
|-3-3-3-3-3-3-3-3-|-----------------|-5-5-5-5-5-5-5-5-|-----------------|
|-----------------|-0-0-0-0-0-0-0-0-|-----------------|-0-0-0-0-0-0-0-0-|

|-----------------|-----------------|-----------------|-----------------|
|-----------------|-----------------|-----------------|-----------------|
|-3-3-3-3-3-3-3---|-----------------|-----------------|-------------2-2-|
|---------------5-|-3-3-3-3-3-3-3-3-|-5-5-5-5-5-5-5-5-|-5-5-5-5-5-5-----|

|-----------------|-------------------|-----------------|-----------------|
|-----------------|-------------------|-----------------|-----------------|
|-3-3-3-3-3-3-5-5-|-7-7-7-7-7-7-10-10-|-5-5-5-5-5-5-5-5-|-------------2-2-|
|-----------------|-------------------|-----------------|-0-0-0-0-0-0-----|

|-----------------|-----------------|-----------------|-----------------|
|-----------------|-----------------|-----------------|-----------------|
|-3-3-3-3-3-3-3---|-----------------|-----------------|-----------------|
|---------------0-|-3-3-3-3-3-3-3-3-|-5-5-5-5-5-5-5-5-|-5-5-5-5-5-5-0-3-|

#4


|---------------|---------------|---------------|---------------|
|---------------|---------------|---------------|---------------|
|---------------|---------------|---------------|---------------|
|-0-0--0-0-0--0-|-0-0--0-0-0--0-|-0-0--0-0-0--0-|-0-0--0-0-0--0-|

|---------------|---------------|-----------------|---------------|
|---------------|---------------|-----------------|---------------|
|---------------|---------------|-----------------|---------------|
|-0-0--0-0-0--0-|-0-0--0-0-0--0-|-0-0-3-0-5-0-3-0-|-0-0-3-5-0-3-0-|

|---------------|---------------|-----------------|---------------|
|---------------|---------------|-----------------|---------------|
|---------------|---------------|-----------------|---------------|
|-0-0--0-0-0--0-|-0-0--0-0-0--0-|-0-0-3-0-5-0-3-0-|-0-0-3-5-0-3-0-|

|-----------------|---------------|---------------|---------------|
|-----------------|---------------|---------------|---------------|
|-----------------|---------------|---------------|---------------|
|-3-3-3-3-3-3-3-3-|-3-3-3-3-3-3-3-|-0-0--0-0-0--0-|-0-0--0-0-0--0-|

|---------------|---------------|---------------|---------------|
|---------------|---------------|---------------|---------------|
|-7-6-5--/-12---|---------------|---------------|---------------|
|---------------|-5-4-3--/-12---|-0-0--0-0-0--0-|-0-0--0-0-0--0-|

|---------------|---------------|---------------|---------------|
|---------------|---------------|---------------|---------------|
|-7-6-5--/-12---|---------------|---------------|---------------|
|---------------|-5-4-3--/-12---|-0-0--0-0-0--0-|-0-0--0-0-0--0-|

|---------------|---------------|---------------|---------------|
|---------------|---------------|---------------|---------------|
|-7-6-5--/-12---|---------------|---------------|---------------|
|---------------|-5-4-3--/-12---|-0-0--0-0-0--0-|-0-0--0-0-0--0-|

[Drum “Solo”]

#5

|---------------|---------------|---------------|---------------|
|---------------|---------------|---------------|---------------|
|---------------|---------------|---------------|---------------|
|-0-0--0-0-0--0-|-0-0--0-0-0--0-|-0-0--0-0-0--0-|-0-0--0-0-0--0-|

|-----------------|-----------------|-----------------|--------------|
|-----------------|-----------------|-----------------|--------------|
|-----------------|-----------------|-3-3-3-3-3-3-3-3-|-5-5-5-5-/-10-|
|-3-3-3-3-3-3-3-3-|-5-5-5-5-5-5-5-5-|-----------------|--------------|

|---------------|---------------|---------------|---------------|
|---------------|---------------|---------------|---------------|
|---------------|---------------|-7-6-5--/-12---|---------------|
|-0-0--0-0-0--0-|-0-0--0-0-0--0-|---------------|-5-4-3--/-12---|

|---------------|---------------|---------------|---------------|
|---------------|---------------|---------------|---------------|
|---------------|---------------|---------------|---------------|
|-0-0--0-0-0--0-|-0-0--0-0-0--0-|-0-0--0-0-0--0-|-0-0--0-0-0--0-|


|---------------|---------------|---------------|---------------|
|---------------|---------------|---------------|---------------|
|---------------|---------------|---------------|---------------|
|-0-0--0-0-0--0-|-0-0--0-0-0--0-|-0-0--0-0-0--0-|-0-0--0-0-0--0-|

|---------------|---------------|---------------|---------------|-------|
|---------------|---------------|---------------|---------------|-------|
|-7-6-5--/-12---|---------------|---------------|---------------|-------|
|---------------|-5-4-3--/-12---|-0-0---0-0-----|-0-0---0-0-----|-0-----|
            
Hard to play? Try these video lessons and learn fast. | Correct




comments powered by Disqus
↑ Back to top | Tablatures and chords are parodies/interpretations of the original songs. You may use it for private study, scholarship, research or language learning purposes only