» » »

Moondance Tabs (ver.1)

Artists:  A B C D E F G H I J K L M N O P Q R S T U V W X Y Z # 

Moondance Tabs (ver.1)

Van Morrison
Rating:
0/5 (0 votes)

Tabs too difficult? Try these video lessons and learn fast.
                Standard Tuning E A D G B E

A7(C6)   B7(D6)      C7       B7(D6)

|--X---------X---------|--X---------X----------|
|--5---------7---------|--5---------7---------|
|--5---------7---------|--4---------7---------|
|--5---------7---------|--5---------7---------|
|--X---------X---------|--3----0----X---------|
|--5----0----7--------|--X---------7----------|

Repeat four times to start, then repeat over entire first verse

then it comes to the chorus....



D-7         A7(C6)     B7(D6)     C7

|--X--X--X-----X--X----|--X--X-------X-X-X----|
|--6--6--6-8p6-5--5-|--7--7-------5-5-5----|
|--5--5--5-----5--5---|--7--7-------4-4-4----|
|--7--7--7-----5--5---|--7--7-------5-5-5----|
|--5--5--5-----X--X----|--X--X-------3-3-3----|
|--X--X--X-----5--5----|--7--7-------X-X-X----|

D-7         A7(C6)     B 7(D6)     C7

|--X--X--X-----X--X----|--X-X-X------X-X-X----|
|--6--6--6-8p6-5--5-|--7-7-7------5-5-5----|
|--5--5--5-----5--5---|--7-7-7------4-4-4----|
|--7--7--7-----5--5---|--7-7-7------5-5-5----|
|--5--5--5-----X--X---|--X-X-X------3-3-3----|
|--X--X--X-----5--5---|--7-7-7------X-X-X----|
            
Tabs too difficult? Try these video lessons and learn fast.


comments powered by Disqus
↑ Back to top | Tablatures and chords are parodies/interpretations of the original songs. You may use it for private study, scholarship, research or language learning purposes only