» » »

Van Morrison, Domino Bass tabs (ver.1)

Artists:  A B C D E F G H I J K L M N O P Q R S T U V W X Y Z # 

Domino Bass tabs (ver.1)

Van Morrison Tabs
Rating:
0/5 (0 votes)
Hard to play? Try these video lessons and learn fast.
                

Fixed by Kyle

Intro - bass comes in at :09 sec
G|-----------------}
D|-7-7----------4-*}
A|------5--5-7----*}
E|-----------------}

Chorus - starts at :36 sec
G|------------------}
D|---------------7-*}
A|-----4-5---5-7---*}
E|-5-5--------------}

Bridge 2X
G|------------------------|------------------}
D|-------------------44-66|---7------------7-}
A|-------44-55-66-77------|-----(0)(0)-7-9---}
E|-55-77------------------|55----------------}

Breakdown - Dig It!
G|--------------6------------------}
D|------47-7-47-----------47-7-47--}
A|----47----------------47---------}
E|-5-7---------------5-7-----------}

1:28
Intro
Chorus
Bridge (repeat last part)
Breakdown


Dig It.
            

comments powered by Disqus
↑ Back to top | Van Morrison Bass for Domino. Lyrics for acoustic guitar and electric guitar. Tablatures and chords are parodies/interpretations of the original songs. You may use it for private study, scholarship, research or language learning purposes only